Oops, an error
Loading. Please wait.

The Seven Deadly Sins - The Seven Deadly Sins Tab

673 views 1 this week
no commentswrite comment
1 2 3 4 5
please rate
Autoscroll
+/-
esc
set tempo
stop
Contributor
Difficulty
intermediate
Hey! There's an official Ultimate Guitar app which is ideal
for learning songs when you're away from computer. Get the app
WARNING: You are trying to view
                                    content from Ultimate-Guitar.com
                                    in an unauthorized application,
                                    which is prohibited.

                                    Please use an official Ultimate
                                    Guitar Tabs application for iPhone,
                                    iPad or Android to access legitimate
                                    chords, guitar, bass, and drum tabs
                                    from Ultimate-Guitar.com database.

                                    Type "ultimate guitar tabs" in Apple
                                    App Store's or Android Market's
                                    search to find the application.
The seven deadly sins

Well here is the complete album tab for our upcoming still untitled album we are
 currently in the process of recording. For information on the seven deadly sins
 band visit our myspace or......

emial nick.homa@gamil.com

1.Boxes of foxes
2.all little whores go to heaven
3. Good grays bad greens
4.its not over till we are dead
5. Joe get your head out of the pussy clouds
6. Damnit I dropped my pick
7. Angels with filthy souls
8. I can still taste the last guy in your mouth
9. Theirs no cleavage in Cleveland
10. Wrap their bodies up in stars and stripes
11. I like you better with your cloths off
12. I hate f***en feedback
13. Leaving New York (acoustic)

1.“boxes of foxes”

drop c

Guitar 1 Intro tremelo picked
|--------------------------------------------------------------------------|
|--------------------------------------------------------------------------|
|--------------------------------------------------------------------------|
|--------------------------------------------------------------------------|
|-555555555555777755555555555577778888888888887777888888881010101012121212-|
|--------------------------------------------------------------------------|
guitar 2 intro
|--------------------------------------------------------------------------|
|--------------------------------------------------------------------------|
|--------------------------------------------------------------------------|
|-0-----------2---0-----------2---3-----------2---3-------5-------7--------|
|-0-----------2---0-----------2---3-----------2---3-------5-------7--------|
|-0-----------2---0-----------2---3-----------2---3-------5-------7--------|
guitar 1 verse
|-----------------------------------------------------|
|-----------------------------------------------------|
|-----------------------------------------------------|
|-----------------------------------------------------|
|---5h8--7h8--8h10--10h12----12p10—--10p8—--8p7—--7p5-|
|-00---00---00----00-----1010-----/88----/77---/55----|
  xx   xx   xx    xx     x x       xx     xx    xx

guitar 1 chorus
|------------------------------------------|
|------------------------------------------|
|------------------------------------------|
|-----8-7------8-7-------10-8--------12-10-|
|-5-8------7-8------8-10-------10-12-------|
|------------------------------------------|
guitar 2 chorus
|----------------------------------|
|----------------------------------|
|----------------------------------|
|-00000000222222223333333355555555-|
|-00000000222222223333333355555555-|
|-00000000222222223333333355555555-|
both guitars pre verse
|------------------|
|------------------|
|------------------|
|-00-000-00-000----|
|-00-000-00-000----|
|-00-000-00-000-3*-|
  xx xxx xx xxx

guitar 1 interlude clean
|-----------------------|
|-----------------------|
|-----------------------|
|---8---8---10-----12---|
|--5-5-7-7-8--8--10--10-|
|-5---7---8----10-------|

guitar 2 interlude electric
|------------------------|
|------------------------|
|------------------------|
|-----00--00---00-----00-|
|-----00--00---00-----00-|
|-----00--00---00-----00-|
      xx  xx   xx     xx
guitar 1 outro solo
|--------------------------------------|
|--------------------------------------|
|--------------------------------------|
|-12/15~-12/(17)-201817-181715—171514b-|
|--------------------------------------|
|--------------------------------------|
continued
|-------------------------------------------------------------|-----
|-------------------------------------------------------------|-----
|-------------------------------------------------------------|-----
|-t20p15h18-(x4)-t19p15h17-(x4)-t20p15h18-(x4)-t20p15h17-(x4)-|-17b-
|-------------------------------------------------------------|-----
|-------------------------------------------------------------|-----

guitar 2 outro solo
|----------------------------------|
|----------------------------------|
|----------------------------------|
|-00000000222222223333333355555555-|
|-00000000222222223333333355555555-|
|-00000000222222223333333355555555-|

intro
verse
chorus
pre verse
verse
chorus
pre verse
interlude
pre verse
verse
chorus
solo
pre verse


2.“all little whores go to heaven”

d standard

Intro/post chorus
|----------------------------------------------------------------|
|----------------------------------------------------------------|
|----------------------------------------------------------------|
|-22-2-2-2-2---22-2-2-2-2---22-2-2-2-2---22-2-2-5p2-3p2----------|
|-22223252322-122223252322-322223252322-1222232--------5p2-3p2---|
|-00-0-0-0-0---00-0-0-0-0---00-0-0-0-0---00-0-0---------------b3-|
  xx x x x x   xx x x x x   xx x x x x   xx x x
continued
|--------------------------------------------------------------------------|
|--------------------------------------------------------------------------|
|--------------------------------------------------------------------------|
|22-22-22-22-22---22-22-22-22-22---22-22-22-22-22---22-22-225p2-3p2--------|
|222223225223222-1222223225223222-3222223225223222-122222322------5p2-3p2--|
|00-00-00-00-00---00-00-00-00-00---00-00-00-00-00---00-00-00-------------b3|
 xx xx xx xx xx   xx xx xx xx xx   xx xx xx xx xx   xx xx xx
verse
|-------------------------------------------------------------------------|
|-------------------------------------------------------------------------|
|-------------------------------------------------------------------------|
|-----------------------------------------------------------5p2-3p2-------|
|---2--2--2—-2—-2*--3--3--3--3--5------2--2--2—-2—-2*-3--3--------5p2-3p2-|
|-00-00-00-00-00--00-00-00-00-00-00-00-00-00-00--00-00-00-00--------------|
  xx xx xx xx xx  xx xx xx xx xx xx xx xx xx xx  xx xx xx xx
chorus
|-------------------------------------------------|
|-------------------------------------------------|
|-------4-444-5-555-7-777-------4-444-5-555-2-222-|
|-2-222-4-444-5-555-7-777-2-222-4-444-5-555-2-222-|
|-2-222-2-222-3-333-5-555-2-222-2-222-3-333-0-000-|
|-0-000-------------------0-000-------------------|
    xxx   xxx   xxx   xxx   xxx   xxx   xxx   xxx
pre solo
|-------x3------------------|---------
|---------------------------|---------
|---------------------------|---------
|-2-22-2-22-2-22-2-22-2-2-2-|-2222222-
|-2-22-2-22-2-22-2-22-2-2-2-|-2222222-
|-0-00-0-00-0-00-0-00-0-0-0-|-0000000-
    xx   xx   xx   xx   x     xxxxxxx
solo
|-/fb11-|-12p10-12p10-----12p10-12p10-----12p10------|
|-------|------------12p10-----------12p10-----12p10-|
|-------|--------------------------------------------|
|-------|--------------------------------------------|
|-------|--------------------------------------------|
|-------|-----------------x2-------------------------|
continued
|-13p10-13p10-----13p10-13p10-----13p10------|
|------------11p10-----------11p10-----11p10-|
|--------------------------------------------|
|--------------------------------------------|
|--------------------------------------------|
|--------------------x2----------------------|
continued
|-/17-|-19p17-19p17-----19p17-19p17-----19p17------|
|-----|------------19p17-----------19p17-----19p17-|
|-----|--------------------------------------------|
|-----|--------------------------------------------|
|-----|--------------------------------------------|
|-----|--------------x2----------------------------|
continued
|-20p17-20p17-----20p17-20p17-----20p17-----|-fb19—
|------------18p17-----------18p17----18p17-|------
|-------------------------------------------|------
|-------------------------------------------|------
|-------------------------------------------|------
|----------x2-------------------------------|------

solo rythem
|-------------------------------------------------|
|-------------------------------------------------|
|-------4-444-5-555-7-777-------4-444-5-555-2-222-|
|-2-222-4-444-5-555-7-777-2-222-4-444-5-555-2-222-|
|-2-222-2-222-3-333-5-555-2-222-2-222-3-333-0-000-|
|-0-000-------------------0-000-------------------|
outro
|-----------------------------------|
|-----------------------------------|
|-----------------------------------|
|-5p2-3p2-------5p2-3p2--------2222-|
|--------5p2-3p2-------5p2-3p2-2222-|
|------------------------------0000-|
                               xxxx

intro
verse 
chorus
post chorus
verse 
chorus
pre solo
solo
chorus
post chorus
outro


3.“good grays bad greens”

drop c

Guitar 1 intro
|--------------------------------------|
|--------------------------------------|
|--------------------------------------|
|-----(7)-(8)-(8)75----(7)-(8)-(8)1087-|
|--578---6---7------578---6---7--------|
|-0----------------0-------------------|
  x      x   x     x      x   x

guitar 2 intro
|--------------------------------------|
|--------------------------------------|
|--------------------------------------|
|-0-------------------0-0--------------|
|-0-------------------0-0--------------|
|-0-------------------0-0--------------|
                      x                                                 
Guitar 1 intro continued
|------------------------------------------|
|------------------------------------------|
|------------------------------------------|
|-----(7)-(8)-(8)75----(7)-(8)-(8)1087-----|
|--578---6---7------578---6---7-------1087-|
|-0----------------0-----------------------|
  x      x   x     x      x   x

guitar 2 intro continued
|------------------------------------------|
|------------------------------------------|
|-------------------(12)-------------------|
|--------------(12)-----------0-0-0-0-0-0--|
|-----------------------------0-0-0-0-0-0--|
|-----------------------------0-0-0-0-0-0--|
                              x x x x x x

guitar 1 verse pt 1
|----------------------------------------------|
|----------------------------------------------|
|----------------------------------------------|
|----------------(7)---------------7-8-7-------|
|--5-7-8-7~-5-7-8----5-7-8-7~-5-7-8-----10-8-7-|
|-0--------0--------0--------0-----------------|
  x        x        x        x   
guitar 2 pt 1
|----------------------------------------------|
|----------------------------------------------|
|----------------------------------------------|
|-00-2-3-2-00-2-3-7-00-2-3-2-00-2-3-7~---------|
|-00-2-3-2-00-2-3-7-00-2-3-2-00-2-3-7~---------|
|-00-2-3-2-00-2-3-7-00-2-3-2-00-2-3-7~---------|
  xx x x   xx x x   xx x x   xx x x

guitar 1 verse pt 2
|--------------------------------------------------------------------------|
|--------------------------------------------------------------------------|
|--------------------------------------------------------------------------|
|----------7h8------------------7h8-------------------7h8------------------|
|--5h7-7h8-----8p7-7p5—-5h7-7h8-----8p7-8h10--5h7-7h8-----8p7-7p5—-5h7-7h8-|
|00---0---0---0---0---00---0---0---0---0----00---0---0---0---0---00---0---0|
 xx   x   x   x   x   xx   x   x   x   x    xx   x   x   x   x   xx   x   x
continued
|end-1-|---end-2------------
|------|--------------------
|------|--------------------
|-8*---|-10-8-7-------------
|------|-------10-8-7-8-7-5-
|------|--------------------
guitar 2 verse pt 2
|--------------------------------------------------------------------------|
|--------------------------------------------------------------------------|
|--------------------------------------------------------------------------|
|-0-------------------2-------------------3-------------------5------------|
|-0-------------------2-------------------3-------------------5------------|
|-0-------------------2-------------------3-------------------5------------|

guitar 1 CHORUS 
|----------------------------------------------|
|----------------------------------------------|
|-77777777999999991010101010101010121212101099-|
|-xxxxxxxxxxxxxxxxx-x-x-x-x-x-x-x-x-x-x-x-x-xx-|
|-55555555777777778-8-8-8-8-8-8-810101088-8-77-|
|----------------------------------------------|
guitar 1 CHORUS  continued
|--------------------------------------------------|
|--------------------------------------------------|
|-777777779999999910101010101010101515151414141212-|
|-xxxxxxxxxxxxxxxxxxxxxxx-x-x-x-x-x-x-x-x-x-x-x-x--|
|-55555555777777778-8-8-8-8-8-8-8-1313131212121010-|
|--------------------------------------------------|

chorus guitar 2
|-------------------------------------------------------------------|
|-------------------------------------------------------------------|
|-------------------------------------------------------------------|
|-00000000222222223333333355533322000000002222222233333333888777555-|
|-00000000222222223333333355533322000000002222222233333333888777555-|
|-00000000222222223333333355533322000000002222222233333333888777555-|
guitar 1 solo
|------x3-------------|-----|---------18-----19-----18-----17-|-/19fb-
|----10---11---10---9-|-(9)/|-16-15-16--15-16--15-16--15-16---|-------
|-7-8—-7-8--7-8--7-8—-|-----|---------------------------------|-------
|---------------------|-----|---------------------------------|-------
|---------------------|-----|---------------------------------|-------
|---------------------|-----|---------------------------------|-------
guitar 2 solo rythem
|-------------------------------------------------------------------|
|-------------------------------------------------------------------|
|-------------------------------------------------------------------|
|-00000000222222223333333355533322000000002222222233333333888777555-|
|-00000000222222223333333355533322000000002222222233333333888777555-|
|-00000000222222223333333355533322000000002222222233333333888777555-|

intro
verse pt 1
verse pt 2
chorus
intro
verse pt 1
verse pt 2
chorus 
solo

4.“its not over till we are dead”

drop c

Intro guitar 1 clean
|-------------------------------------------------------------------|
|----13--13--13-12----12--12--12-15---15--15--15-12---13--15-13-12--|
|-------------------------------------------------------------------|
|--14--14--14-------14--14--14------14--14--14------14--14----------|
|-0----------------0---------------0---------------0----------------|
|-------------------------------------------------------------------|
intro part 2/ verse guitar 1 clean
|-------------------------------------------------------------|
|----12--12--12-----13--13--13-----15--15--15-----13-----12---|
|-------------------------------------------------------------|
|--14--14--14--14-14--14--14--14-14--14--14--14-14--14-14--14-| x4
|-0--------------0--------------0--------------0------0-------|
|-------------------------------------------------------------|

verse guitar 2 comes in with the singing clean
|------------------------------------------------------------------|
|------------------------------------------------------------------|
|------------------------------------------------------------------|
|-7777777777777777333333333333333355555555555555553333333355555555-|
|-7777777777777777333333333333333355555555555555553333333355555555-|
|-7777777777777777333333333333333355555555555555553333333355555555-|
pm----------------------------------------------------------------

verse guitar 3 light distorcian with slight echo
|----------------------|-------------------------------------------------|
|---13-12~~~--13-15~~~-|---13121315131213--13121315131213-12h13p12h13p12-|
|----------------------|-----------------14------------------------------|
|-14--------14---------|-14----------------------------------------------| 
|----------------------|-------------------------------------------------|
|----------------------|-------------------------------------------------|

guitar 1 chorus 
|------------------------------------------------------|
|---13-12--13-12-15-13-12-13--13-12--13-12-15-13-12-13-|
|---------------------------14-----14------------------|
|-14-----14--------------------------------------------|
|------------------------------------------------------|
|------------------------------------------------------|

guitar 1 chorus continued
|------------------------------------------------------------|
|---13-12--13-12-15-13-12-13--13-12--13-12-15-13-12-13-12-10-|
|---------------------------14-----14------------------------|
|-14-----14--------------------------------------------------|
|------------------------------------------------------------|
|------------------------------------------------------------|

guitar 2 chorus
|------------------------------------------------------------------|
|------------------------------------------------------------------|
|------------------------------------------------------------------|
|-7777777777777777333333333333333355555555555555553333333355555555-|
|-7777777777777777333333333333333355555555555555553333333355555555-|
|-7777777777777777333333333333333355555555555555553333333355555555-|

guitar 1 verse 2
|------------------------------------------------------------------|
|------------------------------------------------------------------|
|------------------------------------------------------------------|
|-7777777777777777333333333333333355555555555555553333333355555555-|
|-7777777777777777333333333333333355555555555555553333333355555555-|
|-7777777777777777333333333333333355555555555555553333333355555555-|    
  xxxxxxxxxxxxxxx xxxxxxxxxxxxxxx xxxxxxxxxxxxxxx xxxxxxx xxxxxxx

guitar 1 outro 
|------------------------------------------------------------------------|
|-t22h15p12-(x8)t18h15p12-(x8)t20h15p12-(x8)t18h15p12-(x4)t20h15p12-(x4)-|
|------------------------------------------------------------------------|
|------------------------------------------------------------------------| 
|------------------------------------------------------------------------|
|------------------------------------------------------------------------|
guitar 2 outro
|------------------------------------------------------------------|---
|------------------------------------------------------------------|---
|------------------------------------------------------------------|---
|-7777777777777777333333333333333355555555555555553333333355555555-|-7-
|-7777777777777777333333333333333355555555555555553333333355555555-|-7-
|-7777777777777777333333333333333355555555555555553333333355555555-|-7-

intro
verse
chorus
intro
verse
chorus 
verse 2
chorus 
outro


5.“Joe get your head out of the pussy clouds”

drop c

guitar 2 intro
|-t12-0h7h8-t12-0h5h7-t12-0h3h5-t12-0h2h3-|
|-----------------------------------------|
|-----------------------------------------|
|-----------------------------------------|
|-----------------------------------------|
|---------------x2------------------------|
continued
|-t14-0h7h8-t14-0h5h7-t14-0h3h5-t14-0h2h3-|
|-----------------------------------------|
|-----------------------------------------|
|-----------------------------------------|
|-----------------------------------------|
|-----------------------------------------|

guitar 1 intro harmony
|-t15-0h10h11-t15-0h8h10-t15-0h6h8-t15-0h5h6-|
|--------------------------------------------|
|--------------------------------------------|
|--------------------------------------------|
|--------------------------------------------|
|---------------x2---------------------------|
continued
|-t17-0h10h11-t17-0h8h10-t17-0h6h8-t17-0h5h6-|
|--------------------------------------------|
|--------------------------------------------|
|--------------------------------------------|
|--------------------------------------------|
|------------------x2------------------------|

guitar 1 continued intro verse guitar 2 keeps playing intro
|------------------------------------------------------------------------|
|------------------------------------------------------------------------|
|------------------------------------------------------------------------|
|-2~-------5~-------4~-------7~-------2~-------5~-------4~-------77--88--|x2
|-2~-------5~-------4~-------7~-------2~-------5~-------4~-------77--88--|
|-2~-------5~-------4~-------7`-------2~-------5~-------4~-------77--88--|

guitar 1 pre verse really fast
|----------------------------------------------------------|
|----------------------------------------------------------|
|----------------------------------------------------------|
|-----87-----75------------------87-----75-----------------|
|-----87-----75------------------87-----75----------7h8h10-|
|-000087-000075-000055332233-000087-000075-0000-7h8h10-----|
  xxxx   xxxx   xxxx         xxxx   xxxx   xxxx

guitar 1 pre verse really fast continued
|--------------------------------------------------|
|--------------------------------------------------|
|--------------------------------------------------|
|-----87-----75------------------87-----75---------|
|-----87-----75------------------87-----75---------|
|-000087-000075-000055332233-000087-000075-0000-3*-|
  xxxx   xxxx   xxxx         xxxx   xxxx   xxxx

guitar 2 pre verse keep repeating 
|---------------------------------------------------------|
|---------------------------------------------------------|
|---------------------------------------------------------|
|-0~------------------------8~----------------------------|
|-0~------------------------8~----------------------------|
|-0~------------------------8~----------------------------|

guitar 1 verse
|-----------------------------------------------------------|
|-----------------------------------------------------------|
|-----------------------------------------------------------|
|-0--------------------------0-----------------------7h8h10-|
|-0------------------8p7-----0-----------------7h8h10-------|
|-0-00-8p7-00-7p5-000---h8p7-0-00-8p7-0-7p5-000-------------|
    xx     xx     xxx          xx     x     xxx
guitar 1 verse continued
|-------------------------------------------------------|
|-------------------------------------------------------|
|-------------------------------------------------------|
|-0------------------------------0----------------------|
|-0---------------------h8p7-----0----------------------|
|-0-00-00-8p7-00-7p5-000----h8p7-0-00-8p7-00-7p5-000-3*-|
    xx xx     xx     xxx           xx     xx     xxx

guitar 2 verse keep repeating 
|---------------------------------------------------------|
|---------------------------------------------------------|
|---------------------------------------------------------|
|-0~------------------------8~----------------------------|
|-0~------------------------8~----------------------------|
|-0~------------------------8~----------------------------|
verse pt 2 guitar 1
|----------------------------------|
|----------------------------------|
|----------------------------------|
|----8p7/5—--7p5/3—--5p3/2—--3p2p0-|
|----------------------------------|
|----------------------------------|
  
verse pt 2 guitar 2
|----------------------------------|
|----------------------------------|
|----------------------------------|
|-888-----777-----555-----333------|
|-888-----777-----555-----333------|
|-888-----777-----555-----333------|

guitar 1 pre chorus
|---------------------------------------------------------------|---|-----|
|---------------------------------------------------------------|---|-----|
|---------------------------------------------------------------|---|-----|
|---3p0-0-2p0-0-3p0-0-5p0-0-3p0-2h3--3p0-0-2p0-0-3p0-0-5p0-0-3p0|---|-3-5-|
|---------------------------------------------------------------|3*-|-3-5-|
|-00-------------------------------00---------------------------|---|-3-5-|
  xx                               xx
guitar 2 pre chorus
|---------------------------------------------------------------|---|----|
|---------------------------------------------------------------|---|----|
|---------------------------------------------------------------|---|----|
|-00-------------------------------00---------------------------|---|----|
|-00-------------------------------00---------------------------|---|----|
|-00-------------------------------00---------------------------|---|----|
  xx                               xx
guitar 1 chorus
|------------------------------------------|
|------------------------------------------|
|------------------------------------------|
|-8888888877777777101010101010101055555555-|
|-8888888877777777101010101010101055555555-|
|-8888888877777777101010101010101055555555-|

guitar 2 chorus
|-t12-0h7h8-t12-0h5h7-t12-0h3h5-t12-0h2h3-|
|-----------------------------------------|
|-----------------------------------------|
|-----------------------------------------|
|-----------------------------------------|
|---------------x2------------------------|
continued
|-t14-0h7h8-t14-0h5h7-t14-0h3h5-t14-0h2h3-|
|-----------------------------------------|
|-----------------------------------------|
|-----------------------------------------|
|-----------------------------------------|
|-----------------------------------------|


Guitar 1 joins in once at the end with the harmony
guitar 1 harmony
|-t15-0h10h11-t15-0h8h10-t15-0h6h8-t15-0h5h6-|
|--------------------------------------------|
|--------------------------------------------|
|--------------------------------------------|
|--------------------------------------------|
|---------------x2---------------------------|
continued
|-t17-0h10h11-t17-0h8h10-t17-0h6h8-t17-0h5h6-|
|--------------------------------------------|
|--------------------------------------------|
|--------------------------------------------|
|--------------------------------------------|
|------------------x2------------------------|

guitar 1 interlude/pre solo
|-t12-0h7h8-(x4)-t14-0h7h8-(x4)-|
|-------------------------------|
|-------------------------------|
|-------------------------------|
|-------------------------------|
|-------------------------------|
guitar 2 interlude/pre solo
|-------------------------------|
|-------------------------------|
|-------------------------------|
|-0------------0----------------|
|-0------------0----------------|
|-0------------0----------------|
guitar 1 solo 
|-t12-7h8-(x8)-t10-5h7-(x8)-t8-3h5-(x8)-t7-2h3-(x4)-t8-3h5-(x4)-|
|---------------------------------------------------------------|
|---------------------------------------------------------------|
|---------------------------------------------------------------|
|---------------------------------------------------------------|
|---------------------------------------------------------------|
guitar 2 solo rythem 
|---------------------------------------------------------------|
|---------------------------------------------------------------|
|---------------------------------------------------------------|
|-2------------0------------10----------9-----------10----------|
|-2------------0------------10----------9-----------10----------|
|-2------------0------------10----------9-----------10----------|

Guitar 1 solo continued
|-t12-7h8-(x4)-t14-7h8-(x4)-t15-7h8-(x4)-t17-7h8-(x4)-|
|-----------------------------------------------------|
|-----------------------------------------------------|
|-----------------------------------------------------|
|-----------------------------------------------------|
|-----------------------------------------------------|
Guitar 2 solo rythem continued 
|-----------------------------------------------------|
|-----------------------------------------------------|
|-----------------------------------------------------|
|-2------------4------------5------------7------------|
|-2------------4------------5------------7------------|
|-2------------4------------5------------7------------|


intro
intro harmony
intro verse
pre verse
verse pt 1
verse pt 2
pre chorus
chorus
intro harmony
pre verse
verse pt 1
verse pt 2
pre chorus
chorus
intro harmony
pre verse
interlude
solo
intro harmony


6.“Damnit I dropped my pick”

drop c

Guitar 1 intro/ pre verse
|-------------------------------------------------------------------|---
|-------------------------------------------------------------------|---
|-------------------------------------------------------------------|---
|-------------------------------87-------------------------------78-|-7-
|-00-0h5h7-0h7h8-0h8h10-0h7h8p7-87-00-0h5h7-0h7h8-0h8h10-0h7h8p7-78-|-7-
|-00----------------------------87-00----------------------------78-|-7-
  xx                               xx
guitar 2
|-------------------------------------------------------------------|---
|-------------------------------------------------------------------|---
|-------------------------------------------------------------------|---
|-------------------------------87-------------------------------78-|-7-
|-00----------------------------87-00----------------------------78-|-7-
|-00----------------------------87-00----------------------------78-|-7-
  xx                               xx
guitar 1 verse
|---------------------------------------------|
|---------------------------------------------|
|---------------------------------------------|
|---7--7-7--8--8-8--10--10-10----12----12--11-|
|-55-55-5-77-77-7-88--88--8--1010--1010--10---|
|---------------------------------------------|
  xx xx x xx xx x xx  xx  x  x x   x x   x      

guitar 1 verse continued 
|----------------------------------------|
|----------------------------------------|
|----------------------------------------|
|---7--7-7--8--8-8—-10--10-10--12--12-11-|
|---5--5-5--7--7-7--8---8--8---10--10-10-|
|-00-00-0-00-00-0-00--00--0--00--00--0---|
  xx xx x xx xx x xx  xx  x  xx  xx  x


Guitar 2 verse keep playing for entire verse
|------------------------------------------|
|------------------------------------------|
|------------------------------------------|
|-5555555577777777888888881010101010101010-|
|-5555555577777777888888881010101010101010-|
|-5555555577777777888888881010101010101010-|
  xxxxxxxxxxxxxxxxxxxxxxxxxxxxxxxxxxxxxxxx 

guitar 1 pre chorus/chorus
|---------------------------------------------|
|---------------------------------------------|
|---------------------------------------------|
|---7--7-7--8--8-8--10--10-10----12----12--11-|
|-55-55-5-77-77-7-88--88--8--1010--1010--10---|
|---------------------------------------------|
Guitar 2 chorus
|------------------------------------------|
|------------------------------------------|
|------------------------------------------|
|-5555555577777777888888881010101010101010-|
|-5555555577777777888888881010101010101010-|
|-5555555577777777888888881010101010101010-|

Guitar 1 and 2 breakdown  
|-------------------------------------|
|-------------------------------------|
|-------------------------------------|
|-0~----00-00-00-00-0-0-00-00-00-00---|
|-0~-//-00-00-00-00-0-0-00-00-00-00---|
|-0~-//-00-00-00-00-0-0-00-00-00-00-3*|
        xx xx xx xx x x xx xx xx xx              

Guitar 1 and 2 breakdown continued
|-------------------------------|
|-------------------------------|
|-------------------------------|
|-00-00-00-00-0-0-00-00-00-00-5-|
|-00-00-00-00-0-0-00-00-00-00-5-|
|-00-00-00-00-0-0-00-00-00-00-5-|
  xx xx xx xx x x xx xx xx xx              
guitar 1 and 2 breakdown  continued
|--------------------------------|
|--------------------------------|
|--------------------------------|
|-00-00-00-00-0-0-00-00-00-00----|
|-00-00-00-00-0-0-00-00-00-00----|
|-00-00-00-00-0-0-00-00-00-00-3*-|
  xx xx xx xx x x xx xx xx xx              
Guitar 1 and 2 breakdown continued 
|-----------------------------------|
|-----------------------------------|
|-----------------------------------|
|-00-00-00-00-0-0-00-00-00-00-5-3-0-|
|-00-00-00-00-0-0-00-00-00-00-5-3-0-|
|-00-00-00-00-0-0-00-00-00-00-5-3-0-|
  xx xx xx xx x x xx xx xx xx              

intro
verse
pre chorus
chorus
intro
verse
pre chorus
chorus
outro

7.“angels with filthy souls”

drop c

Guitar 1 Intro
|-------------------------------------------------------------------------|
|-------------------------------------------------------------------------|
|-------------------------------------------------------------------------|
|--11-12-11---11-12-11---5-7-5---7-9-7---11-12-11---11-12-11---5-7-5—-7---| 
|-9--------9-9--------9-5-----5-7-----7-9--------9-9--------9-5-----5-7-//|
|9----------9----------5-------7-------9----------9----------5--------7-//|
Guitar 2 intro
|------------------------------------------------------------|
|------------------------------------------------------------|
|------------------------------------------------------------|
|-999999999999999955555555777777779999999999999999555555557~-| 
|-999999999999999955555555777777779999999999999999555555557~-|
|-999999999999999955555555777777779999999999999999555555557~-|
Pm--------------------------------------------------------

guitar 1 verse
|------------------------------------------------------------------|
|------------------------------------------------------------------|
|----------------------------------------------7-------------------|
|--------------9---------------5----7--7—-7--7--7---------7--7--7--| 
|---9--9--9--9--9---5--5--5--5--5-55-55-55-55-5--5--7--7---7--7--7-|
|-99-99-99-99-9--955-55-55-55-5--5----------------77-77-77--7-—7---|
  xx xx xx xx x   xx xx xx xx x   xx xx xx xx x   xx xx xx  
guitar 2 verse
|--------------------------------------------------------------|
|--------------------------------------------------------------|
|-------------------------------777777777777777----------------|
|-999999999999999555555555555555777777777777777777777777777777-| 
|-999999999999999555555555555555555555555555555777777777777777-|
|-999999999999999555555555555555---------------777777777777777-|
  xx xx xx xx xx xx xx xx xx xx xx xx xx xx xx xx xx xx xx xx
 
guitar 1 chorus
|----------------------------------|
|----------------------------------|
|-------------------7---7----------|
|---9---9---5---5--7-7-7-7--7---7--| 
|--9-9-9-9-5-5-5-55---5----7-7-7-7-|
|-9---9---5---5-----------7---7----|

guitar 2 chorus
|----------------------------------|
|----------------------------------|
|-----------------77777777---------|
|-99999999555555557777777777777777-| 
|-99999999555555555555555577777777-|
|-9999999955555555--------77777777-|

verse 2 guitar 1
|-------------------------------------------------|
|-------------------------------------------------|
|-------------------------777-7-777-7-------------|
|-999-9-999-9-555-5-555-5-777-7-777-7-777-7-777-7-| 
|-999-9-999-9-555-5-555-5-555-5-555-5-777-7-777-7-|
|-999-9-999-9-555-5-555-5-------------777-7-777-7-|

intro
verse
chorus
intro 
verse
chorus
verse 2
chorus
intro

8.“I can still taste the last guy in your mouth”

drop c

Guitar 1 Intro/ verse
|--------------------------------------------|
|--------------------------------------------|
|--------------------------------------------|
|---------(8)—-(7)-------------(8)—-(7)------|
|---5--6------------8p6--5--6------------6h8-|
|-55-55-55---55---55---55-55-55---55---55----|
  xx xx xx   xx   xx   xx xx xx   xx   xx
guitar 2
|------------------------------------------|
|------------------------------------------|
|------------------------------------------|
|----------------------5~------------------|
|----------------------5~------------------|
|----------------------5~------------------|

Guitar 1 Intro/ verse continued
|---------------------------------------------|
|---------------------------------------------|
|---------------------------------------------|
|--------(8)—-(7)-------------8p5-7p5---------|
|---5--6-----------8p6--5--6----------8p5-6p5-|
|-55-55-55--55---55---55-55-555---------------|
  xx xx xx  xx   xx   xx xx xxx
guitar 2
|---------------------------------------------|
|---------------------------------------------|
|---------------------------------------------|
|-8~-------------------10~--------------------|
|-8~-------------------10~----//--------------|
|-8~-------------------10~----//--------------|

Guitar 2 harmony jumps in with guitar one intro verse
|--------------------------------------------|
|--------------------------------------------|
|--------------------------------------------|
|---------11---10--------------11---10-------|
|---8--9-----------11p9--8--9-----------9h11-|
|-88-88-88---88--88----88-88-88---88--88-----|
  xx xx xx   xx  xx    xx xx xx   xx  xx
Guitar 2 harmony continued
|----------------------------------------------|
|----------------------------------------------|
|----------------------------------------------|
|---------11---10----------------8~------------|
|---8--9-----------11p9--8--9----8~-//---------|
|-88-88-88---88--88----88-88-888-8~-//pickslide|
  xx xx xx   xx  xx    xx xx xxx  
guitar 1 intro pt 2
|----------------------------------------|
|----------------------------------------|
|----------------------------------------|
|-0-8p5-7p5--------10p7-9p7--------------|
|-0--------8p5-6p5---------10p7-8p7------|
|-0--------------------------------------|
guitar 2 intro part 2
|----------------------------------------|
|----------------------------------------|
|----------------------------------------|
|-0---------------13p10-12p10------------|
|-0--------------------------13p10-11p10-|
|-0--------------------------------------|
guitar  1 chorus 
|----------------------------------------------|
|----------------------------------------------|
|----------------------------------------------|
|-0----------85-0---------56-0---------8555666-|
|-0-----6-5--85-0-----6-5-56-0-----6-5-8555666-|
|-0-000------85-0-000-----56-0-000-----8555666-|
    xxx           xxx          xxx
Guitar 2 chorus harmony
|-----------------------------------------------|
|-----------------------------------------------|
|-----------------------------------------------|
|-0---------118-0---------89-0---------11888999-|
|-0-----9-8-118-0-----9-8-89-0-----9-8-11888999-|
|-0-000-----118-0-000-----89-0-000-----11888999-|
    xxx           xxx          xxx
guitar 1 pre verse
|------------------------------------------------------------------|
|------------------------------------------------------------------|
|------------------------------------------------------------------|
|----------8656----------6865----------8656---------8p5-7p5--------|
|---5--6---8656---5--6---6865---5--6---8656---5—-6---------8p5-6p5-|
|-55-55-55-8656-55-55-55-6865-55-55-55-8656-55-55-55---------------|
  xx xx xx      xx xx xx      xx xx xx      xx xx xx
guitar 2 pre verse
|------------------------------------------------------------------|
|------------------------------------------------------------------|
|------------------------------------------------------------------|
|---------11989---------91198---------11989----------8~------------|
|---8--9--11989---8--9--91198---8--9--11989---8--9---8~------------|
|-88-88-8811989-88-88-8891198-88-88-8811989-88-88-88-8~------------|
  xx xx xx      xx xx xx      xx xx xx      xx xx xx
guitar 1 interlude
|----------------------------------|
|----------------------------------|
|----------------------------------|
|-33333333555555551111111188888888-|
|-33333333555555551111111188888888-|
|-33333333555555551111111188888888-|

guitar 2 interlude
|-13----13----13--15----15----15--11----11----11--11----11----11---|
|---13----13----13--13----13----13--11----11----11--11----11----11-|
|-----14----14--------14----14--------12----12--------12----12-----|
|------------------------------------------------------------------|
|------------------------------------------------------------------|
|------------------------------------------------------------------|

Guitar 1 outro
|--------------------------------------------|
|--------------------------------------------|
|--------------------------------------------|
|---------(8)—-(7)-------------(8)—-(7)------|
|---5--6------------8p6--5--6------------6h8-|
|-55-55-55---55---55---55-55-55---55---55----|
  xx xx xx   xx   xx   xx xx xx   xx   xx  
Guitar 2 outro harmony
|--------------------------------------------|
|--------------------------------------------|
|--------------------------------------------|
|---------11---10--------------11---10-------|
|---8--9-----------11p9--8--9-----------9h11-|
|-88-88-88---88--88----88-88-88---88--88-----|
  xx xx xx   xx  xx    xx xx xx   xx  xx
Guitar 1 outro continued
|--------------------------------------------------------------------|
|--------------------------------------------------------------------|
|--------------------------------------------------------------------|
|--------(8)—-(7)-------------8p5-7p5--------10p7-9p7---------5555-5-|
|---5--6-----------8p6--5--6----------8p5-6p5--------10p7-8p7-5555-5-|
|-55-55-55--55---55---55-55-555-------------------------------5555-5-|
  xx xx xx  xx   xx   xx xx xxx                               xxxx
Guitar 2 outro harmony continued
|--------------------------------------------------------------------|
|--------------------------------------------------------------------|
|--------------------------------------------------------------------|
|---------11---10----------------8~---------------------------8888-8-|
|---8--9-----------11p9--8--9----8~-//------------------------8888-8-|
|-88-88-88---88--88----88-88-888-8~-//pickslide---------------8888-8-|
  xx xx xx   xx  xx    xx xx xxx                              xxxx

intro
intro pt 2
verse
chorus
pre verse
verse
chorus
interlude
outro

9.“theirs no cleavage in Cleveland” 

drop c

Guitar 2 intro/ pre verse/ chorus
|----17-15-14h15p14-----------17-15-14h15p14---------|
|-15---------------15-14-12-15--------------15-14-17-|
|----------------------------------------------------|
|----------------------------------------------------|
|----------------------------------------------------|
|----------------------------------------------------|
guitar 2
|-------------------------------------------------------------------|
|-------------------------------------------------------------------|
|-77--------------99--------------1212-------------1111----99-------|
|-77--------------99--------------1212-------------1111----99-------|
|-55--------------77--------------10---------------9-9-----77---//--|
|---------------------------------------------------------------//--|
Guitar 1 pre verse/ verse 
|--------------------------------------|
|--------------------------------------|
|---7--7--7--7--7—--12--12--12--12--12-|
|---7--7--5--5--7---12--12--10--10--12-|
|---5--5--5--5--5---10--10--10--10--10-|
|-00-00-00-00-00--00--00--00--00--00---|
  xx xx xx xx xx  xx  xx  xx  xx  xx
guitar 2 verse
|-----------------------------------------------|
|-----------------------------------------------|
|-----------------------------------------------|
|-555555555555555101010101010101010101010101010-|
|-555555555555555101010101010101010101010101010-|
|-555555555555555101010101010101010101010101010-|
  xxxxxxxxxxxxxxxx x x x x x x x x x x x x x x 

Guitar 1 chorus
|----------------------------------------------|
|----------------------------------------------|
|-77777777999999991212121212121212111111119999-|
|-77777777999999991212121212121212111111119999-|
|-555555557777777710101010101010109-9-9-9-7777-|
|----------------------------------------------|

interlude guitar 1 clean
|------------------------------------|
|-----7--7--7--7------8--8--8--8-----|
|---7--7--7--7--7---7--7--7--7--7----|
|--5-5--5--5--5--5-5-5--5--5--5--5---|
|-5---------------5------------------|
|------------------------------------|

interlude guitar 1 clean continued
|------------------------------------------------------------------|
|---------12----12----12----12------------13----13----13----13-----|
|-----12----12----12----12----12------12----12----12----12----12---|
|---10--10----10----10----10----10--10--10----10----10----10----10-|
|-10------------------------------10-------------------------------|
|------------------------------------------------------------------|

guitar 2 light distorcian harmonics weird timing
|--------------------------------------------------------------------------|
|---------------------------------------------(12)----------------(12)-----|
|---------(5)-(7)---------(5)-(7)------------------(12)---------------(12)-|
|-----(7)-------------(7)---------------(12)-----------------(12)----------|
|-(5)-------------(5)-------------(12)------------------(12)---------------|
|--------------------------------------------------------------------------|

guitar 1 solo
|----17-15-14h15p14-------------17-15-14h15p14----------|
|-15----------------15-14-12-15----------------15-14-17-|
|-------------------------------------------------------|
|-------------------------------------------------------|
|-----pinch picking-------------------------------------|
|-------------------------------------------------------|

|-----17p15----17p15----17p15----17p15----15p14----15p14----15p14----15p14-|
|-1515-----1515-----1515-----1515-----1414-----1414-----1414-----1414------|
|--------------------------------------------------------------------------|
|--------------------------------------------------------------------------|
|--------------------------------------------------------------------------|
|--------------------------------------------------------------------------|

|----14p12—---14p12—---14p12—---14p12----14p13----14p13----15p14----15b-|
|1212-----1212-----1212-----1212-----1313-----1313-----1414-----1414----|
|-----------------------------------------------------------------------|
|-----------------------------------------------------------------------|
|-----------------------------------------------------------------------|
|-----------------------------------------------------------------------|

Guitar 2 outro harmony
|----17-15-14h15p14-----------17-15-14h15p14---------|
|-15---------------15-14-12-15--------------15-14-17-|
|----------------------------------------------------|
|----------------------------------------------------|
|----------------------------------------------------|
|----------------------------------------------------|
guitar 1 outro harmony
|----20-18-17h18p17-----------20-18-17h18p17---------|
|-18---------------18-17-15-18--------------18-17-20-|
|----------------------------------------------------|
|----------------------------------------------------|
|----------------------------------------------------|
|----------------------------------------------------|

10.“wrap their bodies in stars and stripes”

drop c

Guitar 1 Intro clean
|----------------------------|---------------------------|
|---7--6--7--9--11--12--11--9|---7--6--7--9--11--9--7—-6-|
|----------------------------|---------------------------|
|----------------------------|---------------------------|
|-66-66-44-66-88--99--99—-99-|-66-66-44-66-88--99-88-66—-|
|----------------------------|---------------------------|
guitar 2 intro clean
|----------------------------|----------------------------|
|-7~----------6~-------------|-7~----------9~-------------|
|-8~----------6~-------------|-8~----------10~------------|
|-8~----------4~-------------|-8~----------10~------------|
|-6~----------4~-------------|-6~----------8~-------------|
|----------------------------|----------------------------|
Guitar 1 continued
|----------------------------|-----------------------------|
|---7--6--7--9--11--12--11—-9|--7--6--7--9--11--9--7---6—7-|
|----------------------------|-----------------------------|
|----------------------------|-----------------------------|
|-66-66-44-66-88--99--99—-99-|66-66-44-66-88--99-88-66-4-6~|
|----------------------------|-----------------------------|
guitar 2 intro clean continued
|----------------------------|----------------------------|
|-11~---------12~------------|-11~--------9~------------7~|
|-11~---------11~------------|-11~--------10~-----------8~|
|-9~----------9~-------------|-9~---------10~-----------8~|
|-9~----------9~-------------|-9~---------8~------------6~|
|----------------------------|----------------------------|

guiatr 1 electric intro
|-------tremelo picked--------------------------------------------------|
|-----------------------------------------------------------------------|
|-----------------------------------------------------------------------|
|----------------------------------------------------101010-888-777-555-|
|---------888-777---------888-101010---------888-777--------------------|
|-000-000---------000-000------------000-000----------------------------|
  xxx xxx         xxx xxx            xxx xxx
guitar 2 electric intro 
|-----------------------------------------------------------------------|
|-----------------------------------------------------------------------|
|-----------------------------------------------------------------------|
|-0----------------------------------0----------------------------------|
|-0----------------------------------0----------------------------------|
|-0----------------------------------0----------------------------------|
guitar 1 pre verse
|------------------------------------------------|
|------------------------------------------------|
|------------------------------------------------|
|--------------------8p7--------------------10p8-|
|---8p7—10p8—8p7-8p7------8p7—-10p8—8p7-8p7------|
|-00---0----0---0---0---00----0----0---0---0-----|
  xx   x    x   x   x   xx    x    x   x   x    
guitar 2 pre verse
|-----------------------------------------------|
|-----------------------------------------------|
|-----------------------------------------------|
|-8---------------------7-----------------------|
|-8---------------------7-----------------------|
|-8---------------------7-----------------------|

guitar 1 pre verse
|-----------------------------------------------|
|-----------------------------------------------|
|-----------------------------------------------|
|--------------------8p7-----------10p8p7-------|
|---8p7—10p8—8p7-8p7------8p7—10p8----—--10p8p7-|
|-00---0----0---0---0---00---0----0-------------|
  xx   x    x   x   x   xx   x    x
|-----------------------------------------------|
|-----------------------------------------------|
|-----------------------------------------------|
|-5---------------------5-----------------------|
|-5---------------------5-----------------------|
|-5---------------------5-----------------------|

verse both guitars 
|----------------------------------------------|
|----------------------------------------------|
|----------------------------------------------|
|-0----------------------0---------------------|
|-0-------------3p2------0-------------3p2-3h5-|
|-0-000000-3p2-0---0-3p2-0-000000-3p2-0---0----|
    xxxxxx     x   x       xxxxxx     x   x
verse both guitars continued
|-------------------------------------------|end 1-|--end-2---|
|-------------------------------------------|------|----------|
|-------------------------------------------|------|----------|
|-0----------------------0------------------|------|-55556666-|
|-0-------------3p2------0-------------3p2--|------|-33334444-|
|-0-000000-3p2-0---0-3p2-0-000000-3p2-0---0-|-3*---|----------|
    xxxxxx     x   x       xxxxxx     x   x

guitar 1 chorus
|--------------------------------------------------------------------------|
|--------------------------------------------------------------------------|
|77777777--------------------------77777777--------------------------------|
|7777777788888888777777775555xxxx557777777788888888101010101010101055555555|
|5555555588888888777777775555xxxx555555555588888888101010101010101055555555|
|--------88888888777777775555xxxx55--------88888888101010101010101055555555|

guitar 2 chorus
|-------------x3-------------------|--------------------------------20~~~~~|
|-15------17------18~~~~~~~~~~~~~~~|-15------17-----18---------------------|
|----------------------------------|---------------------------------------|
|----------------------------------|---------------------------------------|
|----------------------------------|---------------------------------------|
|----------------------------------|---------------------------------------|
Breakdown both guitars
|-----------------|----------------|-----------------|
|-----------------|----------------|-----------------|
|-----------------|----------------|-----------------|
|-----------------|----------------|-------------321-|
|-----------------|----------------|-------------321-|
|-000-000-000—111-|-000-000-000--3*|-000-000-000-321-|
  xxx xxx xxx xxx   xxx xxx xxx      xxx xxx xxx
Breakdown both guitars continued
|-----------------|-----------(8)--------------|
|-----------------|-------------(8)------------|
|-----------------|---------------(8)----------|
|-----------------|-----------------(8)-----0~-|
|-----------------|-------------------(8)---0~-|
|-000-000-000--3*-|-000-000-000---------(8)-0~-|
  xxx xxx xxx       xxx xxx xxx
interlude guitar 1 clean
|--------------------------------------------------------------------------|
|--------------------------------------------------------------------------|
|--------------------------------------------------------------------------|
|--------------8p7--------------10p8--------------8p7--------------1087----|
|-8p7—10p8—8p7-----8p7—10p8—8p7------8p7—10p8—8p7-----8p7—10p8-8p7-----1087|
|0---0----0---0---0---0----0---0----0---0----0---0---0---0----0---0--------|
Interlude guitar 1 continued
|------------------|
|------------------|
|------------------|
|------------------|
|--8-8-8-8-7-7-5-5-|
|-8-8-8-8-7-7-5-5--|
interlude guitar 2
|----------------------------------------------------------------|
|----------------------------------------------------------------|
|----------------------------------------------------------------|
|-00000000000000333333333333333300000000000000003333333333333333-|
|-00000000000000333333333333333300000000000000003333333333333333-|
|-00000000000000333333333333333300000000000000003333333333333333-|
 Pm-------------------------------------------------------------
Interlude guitar 2 continued
|------------------|
|------------------|
|------------------|
|-8888888877775555-|
|-8888888877775555-|
|-8888888877775555-|
Pm----------------

intro
electric intro
pre verse
verse
chorus
pre verse
chorus
pre verse
breakdown
interlude
pre verse
verse
chorus

11.“I like you better with your cloths off”

d standard

guitar 1 intro/pre verse
|----------------------|--------------------|
|----------------------|---------------3----|
|----------------------|-----------2-x-2-5~-|
|-2-22-2-22-2-22-------|-2-22-2-22-2-x-0-5~-|
|-2-22-2-22-2-22-------|-2-22-2-22-0-x---3~-|
|-0-00-0-00-0-00-3b-3b-|-0-00-0-00----------|
    xx   xx   xx           xx   xx                               
guitar 1 and 2 verse
|-----------------------------------------|
|-----------------------------------------|
|---------------------2-22-2-22-2-22-2-22-|
|-2-22-2-22-2-22-2-22-2-22-2-22-2-22-2-22-|
|-2-22-2-22-2-22-2-22-0-00-0-00-0-00-0-00-|
|-0-00-0-00-0-00-0-00---------------------|
    xx   xx   xx   xx   xx   xx   xx   xx      

guitar 1 and 2 verse continued
|--------------------------------------------|
|--------------------------------------------|
|-5-55-5-55-5-55-5-55-7-77-7-77-7-77-7/6/5/4-|
|-5-55-5-55-5-55-5-55-7-77-7-77-7-77-7/6/5/4-|
|-3-33-3-33-3-33-3-33-5-55-5-55-5-55-5/4/3/2-|
|--------------------------------------------|
    xx   xx   xx   xx   xx   xx   xx    

guitar 2 pre chorus
|----------|
|----------|
|-55556666-|
|-55556666-|
|-33334444-|
|----------|
Guitar 1 pre chorus
|------------------|
|-13131313----14---|
|-12121212--13--13-|
|-1010101011-------|
|------------------|
|------------------|

guitar 1 chorus
|------------------------x3----------------------------|
|-----15------15----10---10-----13------13----10---10--|
|---14--14--14--14-9--9-9--9--12--12--12--12-9--9-9--9-|
|-12------12------7----7----10------10------7----7-----|
|------------------------------------------------------|
|------------------------------------------------------|
guitar 1 chorus continued
|------------------------------------------------------------|
|-----15------15----10---10-----13------13------15------15---|
|---14--14--14--14-9--9-9--9--12--12--12--12--14--14--14--14-|
|-12------12------7----7----10------10------12------12-------|
|------------------------------------------------------------|
|------------------------------------------------------------|

guitar 2 chorus
|---------x3----------------------|--------------------------------|
|---------------------------------|--------------------------------|
|-77777777222222225555555522222222|7777777722222222555555557777777-|
|-77777777222222225555555522222222|7777777722222222555555557777777-|
|-55555555000000003333333300000000|5555555500000000333333355555555-|
|---------------------------------|--------------------------------|
 guitar 1 solo
|-------------------------------------------------=-|
|--10p7-8p7-10p7-8p7-8h10-10p7-8p7-10p7-8p7-10p8p7/-|
|-7----7---7----7---7----7----7---7----7---7--------|
|---------------------------------------------------|
|---------------------------------------------------|
|---------------------------------------------------|
Guitar 1 solo continued
|---------------------------------------------------------------------|
|----(5)---(5)p4---(7)p4---(5)p4---(7)p4--(4)h7-----------------------|
|-(4)---(4)-----(4)-----(4)-----(4)-------------t11h7p5-(x4)-7fb-////-|
|---------------------------------------------------------------/////-|
|---------------------------------------------------------pickscrape--|
|---------------------------------------------------------------------|

guitar 2 solo
|------------------------------------------|
|------------------------------------------|
|-7777777777777777222222225555555566666666-|
|-7777777777777777222222225555555566666666-|
|-5555555555555555000000003333333344444444-|
|------------------------------------------|

guitar 1 outro chorus
|------------------------x3----------------------------|
|-----15------15----10---10-----13------13----10---10--|
|---14--14--14--14-9--9-9--9--12--12--12--12-9--9-9--9-|
|-12------12------7----7----10------10------7----7-----|
|------------------------------------------------------|
|------------------------------------------------------|
guitar 1 outro chorus continued
|------------------------------------------------------------|
|-----15------15----10---10-----13------13------15------15---|
|---14--14--14--14-9--9-9--9--12--12--12--12--14--14--14--14-|
|-12------12------7----7----10------10------12------12-------|
|------------------------------------------------------------|
|----------------------------------------------------|
guitar 1 outro chorus continued
|----------------------|
|-----13------15---10~-|
|---12--12--14--14-9-~-|
|-10------12-------7-~-|
|----------------------|
|----------------------|

guitar 2 outro chorus
|---------x3----------------------|----------------------------------------|
|---------------------------------|----------------------------------------|
|-77777777222222225555555522222222|7777777722222222555555557777777555577772|
|-77777777222222225555555522222222|7777777722222222555555557777777555577772|
|-55555555000000003333333300000000|5555555500000000333333355555555333355550|
|---------------------------------|----------------------------------------|

intro
verse
pre chorus
chorus
intro
verse
pre chorus
chorus
solo
outro chorus

12.“I hate f***en feedback”

drop c

Guitar 1 intro
|------------------------------------------------------------------|
|------------------------------------------------------------------|
|------------------------------------------------------------------|
|-0-------8888-5~--0--------8888-10101010-0-------8888-5-7777-8888-|
|-0-------8888-5~--0--------8888-10101010-0-------8888-5-7777-8888-|
|-0-------8888-5~--0--------8888-10101010-0-------8888-5-7777-8888-|

guitar 1 verse/outro
|----------------------------------------------------------------|
|----------------------------------------------------------------|
|----------------------------------------------------------------|
|----------------------------------------------------------------|
|----------------------------------------------------------------|
|-00-8p7-0-8p7-0-8p7-0-8p7-0-5h7-00-8p7-0-8p7-0-8p7-0-8p7-0-8h10-|
  xx     x     x     x     x     xx     x     x     x     x
verse continued
|-----------------------------------------------------------|
|-----------------------------------------------------------|
|-----------------------------------------------------------|
|-----------------------------------------------------------|
|-----------------------------------------------------------|
|-00-8p7-0-8p7-0-8p7-0-8p7-0-5h7-00-8p7-0-8p7-0-8p7-0000-3*-|
  xx     x     x     x     x     xx     x     x     xxxx
guitar 1 chorus
|------------------------------------------------------------------|
|------------------------------------------------------------------|
|-1515151515151515121212121212121214141414141414141010101012121212-|
|-x-x-x-x-x-x-x-x-x-x-x-x-x-x-x-x-x-x-x-x-x-x-x-x-x-x-x-x-x-x-x-x--|
|-1313131313131313101010101010101012121212121212128-8-8-8-10101010-|
|------------------------------------------------------------------|
guitar 2 chorus
|----------------------------------|
|----------------------------------|
|----------------------------------|
|-88888888555555557777777733335555-|
|-88888888555555557777777733335555-|
|-88888888555555557777777733335555-|

guitar 1 verse 2
|--------------x4---------|--------------------------
|-------------------------|--------------------------
|------1514--101010121212-|-121212121414141415151515-
|------x-x---x-x-x-x-x-x--|-x-x-x-x-x-x-x-x-x-x-x-x—-
|------1312—-8-8-8-101010-|-101010101414141415151515-
|-0-000----00-------------|--------------------------
  x xxx    xx 
guitar 2 verse 2
|-----x4--------|--------------
|---------------|--------------
|---------------|--------------
|------87--3355-|-555577778888-
|------87--3355-|-555577778888-
|-0-00087003355-|-555577778888-
  x xxx  xx
solo
|------------------------------------------------------------------|
|---18171820181718--18171820181718--18171820181718--18171820222018-|
|-15--------------14--------------15--------------14---------------|
|------------------------------------------------------------------|
|------------------------------------------------------------------|
|--------------------------------------x2--------------------------|
continued
|-----------------------------------------------------------------|
|---18-17-18b~-----18-17-18b~-----18-17-18b~------18-17-18b~-20b~-|
|-15----------15-14----------14-15----------145-14----------------|
|-----------------------------------------------------------------|
|-----------------------------------------------------------------|
|----------------------x2-----------------------------------------|
continued
|----------------------------------------------------------|
|---18p15—-18p15—-18p15--18p15—-17p14--17p14--17p14--17p14-|
|-15-----15-----15-----15-----14-----14-----14-----14------|
|----------------------------------------------------------|
|----------------------------------------------------------|
|------------------x2--------------------------------------|
continued
|-------------------x2------------------|
|----L18-t22-h18p15-|----L17-t22-h17p14-|
|-t22---------------|-t22---------------|
|-------------------|-------------------|
|-------------------|-------------------|
|-------x4----------|-------------------|

guitar 2 solo
|------------------|
|------------------|
|------------------|
|-8888888877777777-|
|-8888888877777777-|
|-8888888877777777-|

intro 
verse
chorus
verse 2
pre solo
solo
chorus
verse

13.“leaving new york”

standard (acoustic)

Capo on 3rd fret

intro
|-3---3------3---3---3------3---2---3------3---3---3------3----|
|---3--3-3-3--3-3--3--3-3-3--3-3--3--3-3-3--3-3--3--3-3-3--3-3-|
|--0-0--0-0-0--0--0-0--0-0-0--0--0-0--0-0-0--0--0-0--0-0-0--0--|
|--------------------------------------------------------------|
|----------------3--------------2--------------3---------------|
|-3------------------------------------------------------------|
verse
|-3---3---3---3---------------------|
|---3--3-3--3--3-33---3---3---3-----|
|--0-0--0--0-0--0---0--0-0--0--0-0--|
|------------------2-2--2--2-2--2---|
|-----------------2-------3---------|
|-3-------2-------------------------|
chorus
     d d u d    d d u d    d d u d    d d u d
|----3-3-3-3----3-3-3-3----3-3-3-3----3-3-3-3-|
|----3-3-3-3----3-3-3-3----3-3-3-3----3-3-3-3-|
|--0-0-0-0-0--0-0-0-0-0--0-0-0-0-0--0-0-0-0-0-|
|--0-0-0-0-0--0-0-0-0-0--2-2-2-2-2--2-2-2-2-2-|
|--2-2-2-2-2--0-0-0-0-0-22-2-2-2-2-33-3-3-3-3-|
|-3--3-3-3-3-2--2-2-2-2-----------------------|
post chorus
|-3---3---3---3---3---3---3---3---3-|
|------3-3-----3-3-----3-3--0--3-33-|
|---0---0---0---0---0---0--2-2--2-2-|
|--2-2-----2-2-----2-2----0-------0-|
|-2-------3-------0-----------------|
|-----------------------------------|
outro
|-3---3------3---3---3------3---2---3------3---3---3------3----3~-|
|---3--3-3-3--3-3--3--3-3-3--3-3--3--3-3-3--3-3--3--3-3-3--3-3-3~-|
|--0-0--0-0-0--0--0-0--0-0-0--0--0-0--0-0-0--0--0-0--0-0-0--0—-0~-|
|--------------------------------------------------------------0~-|
|----------------3--------------2--------------3---------------2~-|
|-3------------------------------------------------------------3~-|

intro
verse
chorus
post chorus
verse
chorus
chorus again faster
outro

Check out the seven deadly sins myspace and support us. As well as find upcoming
 shows in the pennsylvania area!
comments
We did not receive enough feedback on this tab! Please rate:
print report bad tab
1 2 3 4 5
I want to post or [tab]
guest
You may want to rate the tab now too:
select rating
Please do not post tabs as comments. Select "correction" instead!