Oops, an error
Loading. Please wait.

Theres No Escape - Shadows In The Light Tab

72 views 1 this week
no commentswrite comment
1 2 3 4 5
please rate
add to favorites launch autoscroll
font size
0
reset
Autoscroll
+/-
esc
set tempo
stop
Contributor
Difficulty
intermediate
WARNING: You are trying to view
                                    content from Ultimate-Guitar.com
                                    in an unauthorized application,
                                    which is prohibited.

                                    Please use an official Ultimate
                                    Guitar Tabs application for iPhone,
                                    iPad or Android to access legitimate
                                    chords, guitar, bass, and drum tabs
                                    from Ultimate-Guitar.com database.

                                    Type "ultimate guitar tabs" in Apple
                                    App Store's or Android Market's
                                    search to find the application.
Intro:

 Guitar 1
  e-----------------------------------------------------------------|
  b-----------------------------------------------------------------|  palm mute
  g-----------------------------------------------------------------|
  d-9-9-9-9-9-9-9-9---------------------------------7-7-7-7-7-7-7-7-|  x 4
  a-7-7-7-7-7-7-7-7-9-9-9-9-9-9-9-9-5-5-5-5-5-5-5-5-5-5-5-5-5-5-5-5-|
  E-----------------7-7-7-7-7-7-7-7-3-3-3-3-3-3-3-3-----------------|

 Guitar 2
  e-0---------------x---------------3---------------2~~~~~~~~~~~~~~-|
  b-0---------------3---------------0---------------3~~~~~~~~~~~~~~-|
  g-0---------------4---------------0---------------2~~~~~~~~~~~~~~-|
  d-2---------------4---------------0---------------0~~~~~~~~~~~~~~-|  x 4
  a-2---------------2---------------2-------------------------------|
  E-0---------------x---------------3-------------------------------|

 Guitar 3
  e-2---------------------------------------------------2---5~~~~~~-|
  b-----3--0~~~~~~~~2-------------------0----3~~~~~~3---------------|
  g---------------------3-----------0-------------------------------|
  d-------------------------4~~~~~~~--------------------------------|  x 4
  a-----------------------------------------------------------------|
  E-----------------------------------------------------------------|

 Bass
  g-----------------------------------------------------------------|
  d-------------------------------------------------0~~~~~~~~~~~~~~-|
  a-----------------2~~~~~~~~~~~~~~~--------------------------------|  x 4
  E-0~~~~~~~~~~~~~~~----------------3~~~~~~~~~~~~~~~----------------|


 Guitar 1
  e-----------------------------------------------------------------|
  b-----------------------------------------------------------------|
  g---------------------------------2-2-2-2-2-2-2-2-----------------|
  d-----------------4-4-4-4-4-4-4-4-0-0-0-0-0-0-0-0-4-4-4-4-4-4-4-4-|  x 4
  a-5-5-5-5-5-5-5-5-2-2-2-2-2-2-2-2-----------------2-2-2-2-2-2-2-2-|
  E-3-3-3-3-3-3-3-3-------------------------------------------------|

 Guitar 2
  e-3---------------x---------------2~~~~~~~~~~~~~~~----------------|
  b-0---------------3---------------3~~~~~~~~~~~~~~~3---------------|
  g-0---------------4---------------2~~~~~~~~~~~~~~~4---------------|
  d-0---------------4---------------0~~~~~~~~~~~~~~~4---------------|  x 4
  a-2---------------2-------------------------------2---------------|
  E-3---------------x-----------------------------------------------|

 Guitar 3
  e-------------------------------------2---5~~~~~~~----------------|
  b-----0---3~~~~~~~2---------------3---------------2---------------|
  g-0-------------------3-------------------------------3-----------|
  d-------------------------4~~~~~~~------------------------4~~~~~~-|  x 4
  a-----------------------------------------------------------------|
  E-----------------------------------------------------------------|

 Bass
  g-----------------------------------------------------------------|
  d---------------------------------4-------------------------------|
  a-5---2-----------5---3---3~~~~~~~----5---2-------5---2---2~~~~~~-|
  E---------3---3-------------------------------3-------------------|

Verse:

 Guitar 1
  e-----------------------------------------------------------------|
  b-----------------------------------------------------------------|  palm mute
  g-----------------------------------------------------------------|
  d-9-9-9-9-9-9-9-9---------------------------------7-7-7-7-7-7-7-7-|  x 2
  a-7-7-7-7-7-7-7-7-9-9-9-9-9-9-9-9-5-5-5-5-5-5-5-5-5-5-5-5-5-5-5-5-|
  E-----------------7-7-7-7-7-7-7-7-3-3-3-3-3-3-3-3-----------------|

 Guitar 2
  e-0---------------x---------------3---------------2~~~~~~~~~~~~~~-|
  b-0---------------3---------------0---------------3~~~~~~~~~~~~~~-|
  g-0---------------4---------------0---------------2~~~~~~~~~~~~~~-|
  d-2---------------4---------------0---------------0~~~~~~~~~~~~~~-|  x 2
  a-2---------------2---------------2-------------------------------|
  E-0---------------x---------------3-------------------------------|

 Guitar 3
  e-0---------|
  b---0-----3-|
  g-------0---|
  d-----------|  x 8
  a-----------|
  E-----------|

 Bass
  g-----------------------------------------------------------------|
  d-------------------------------------------------0~~~~~~~~~~~~~~-|
  a-----------------2~~~~~~~~~~~~~~~--------------------------------|  x 2
  E-0~~~~~~~~~~~~~~~----------------3~~~~~~~~~~~~~~~----------------|

 Guitar 1
  e-----------------------------------------------------------------|
  b-----------------------------------------------------------------|
  g-----------------------------------------------------------------|
  d-9-9-9-9-9~~~~~~~--------------------------------7-7-7-7-7~~~~~~-|  x 2
  a-7-7-7-7-7~~~~~~~9-9-9-9-9~~~~~~~5-5-5-5-5~~~~~~~5-5-5-5-5~~~~~~-|
  E-----------------7-7-7-7-7~~~~~~~3-3-3-3-3~~~~~~~----------------|

 Guitar 2
  e-0~~~~~~~~~~~~~~~x---------------3~~~~~~~~~~~~~~~2~~~~~~~~~~~~~~-
  b-0~~~~~~~~~~~~~~~3~~~~~~~~~~~~~~~0~~~~~~~~~~~~~~~3~~~~~~~~~~~~~~-
  g-0~~~~~~~~~~~~~~~4~~~~~~~~~~~~~~~0~~~~~~~~~~~~~~~2~~~~~~~~~~~~~~-
  d-2~~~~~~~~~~~~~~~4~~~~~~~~~~~~~~~0~~~~~~~~~~~~~~~0~~~~~~~~~~~~~~-  x 2
  a-2~~~~~~~~~~~~~~~2~~~~~~~~~~~~~~~2~~~~~~~~~~~~~~~----------------|
  E-0~~~~~~~~~~~~~~~x---------------3~~~~~~~~~~~~~~~----------------|

 Guitar 3
  e-0-0-0-0-0~~~~~~~------------------------------------------------|
  b------------------0-0-0-0-0~~~~~~-----------------3-3-3-3-3~~~~~-|
  g----------------------------------0-0-0-0-0~~~~~~~---------------|
  d-----------------------------------------------------------------|  x 2
  a-----------------------------------------------------------------|
  E-----------------------------------------------------------------|

 Bass
  g-----------------------------------------------------------------|
  d---------------------------------------------------0~~~~~~~~~~~~-|
  a------------------2~~~~~~~~~~~~~~--------------------------------|  x 2
  E-0~~~~~~~~~~~~~~~-----------------3~~~~~~~~~~~~~~~---------------|

 Guitar 1
  e-----------------------------------------------------------------|
  b-----------------------------------------------------------------|
  g-----------------------------------------------------------------|
  d-9-9-9-9-9-9-9-9---------------------------------7-7-7-7-7-7-7-7-|  x 2
  a-7-7-7-7-7-7-7-7-9-9-9-9-9-9-9-9-5-5-5-5-5-5-5-5-5-5-5-5-5-5-5-5-|
  E-----------------7-7-7-7-7-7-7-7-3-3-3-3-3-3-3-3-----------------|

 Guitar 2
  e-0---------------x---------------3---------------2~~~~~~~~~~~~~~-|
  b-0---------------3---------------0---------------3~~~~~~~~~~~~~~-|
  g-0---------------4---------------0---------------2~~~~~~~~~~~~~~-|
  d-2---------------4---------------0---------------0~~~~~~~~~~~~~~-|  x 2
  a-2---------------2---------------2-------------------------------|
  E-0---------------x---------------3-------------------------------|

 Guitar 3
  e-0---------------|
  b---0-----3~~~~~~-|
  g-------0---------|
  d-----------------|  x 8
  a-----------------|
  E-----------------|

 Bass
  g-----------------------------------------------------------------|
  d-------------------------------------------------0~~~~~~~~~~~~~~-|
  a-----------------2~~~~~~~~~~~~~~---------------------------------|  x 2
  E-0~~~~~~~~~~~~~~-----------------3~~~~~~~~~~~~~~~----------------|

Prechorus:

 Guitar 1
  e---------------------------------|
  b---------------------------------|  palm mute
  g---------------------------------|
  d-----------------4-4-4-4-4-4-4-4-|  x 2
  a-5-5-5-5-5-5-5-5-2-2-2-2-2-2-2-2-|
  E-3-3-3-3-3-3-3-3-----------------|

Chorus:

 Guitar 1
  e-----------------------------------------------------------------|
  b-----------------------------------------------------------------|
  g-----------------------------------------------------------------|
  d-----------------4-4-4-4-4-4-4-4-7-7-7-7-7-7-7-7-4-4-4-4-4-4-4-4-|  x 2
  a-5-5-5-5-5-5-5-5-2-2-2-2-2-2-2-2-5-5-5-5-5-5-5-5-2-2-2-2-2-2-2-2-|
  E-3-3-3-3-3-3-3-3-------------------------------------------------|

 Guitar 2
  e-3---------------x---------------2~~~~~~~~~~~~~~~x---------------|
  b-0---------------3---------------3~~~~~~~~~~~~~~~3---------------|
  g-0---------------4---------------2~~~~~~~~~~~~~~~4---------------|
  d-0---------------4---------------0~~~~~~~~~~~~~~~4---------------|
  a-2---------------2-------------------------------2---------------|
  E-3---------------x-------------------------------x---------------|

 Guitar 3
  e------------------------------------2---5~~~~~~~~----------------|
  b----0---3~~~~~~~~2---------------3---------------2---------------|
  g-0-------------------3-------------------------------3-----------|
  d-------------------------4~~~~~~~------------------------4~~~~~~-|  x 2
  a-----------------------------------------------------------------|
  E-----------------------------------------------------------------|

 Bass
  g-----------------------------------------------------------------|
  d---------------------------------4-------------------------------|
  a-5---2-----------5---3---3~~~~~~~----5---2-------5---2---2~~~~~~-|  x 2
  E---------3---3-------------------------------3-------------------|

Bridge:


 Guitar 1
  e-----------------------------------------------------------------|
  b-----------------------------------------------------------------|
  g-----------------------------------------------------------------|
  d-9-9-9-9-9-9-9-9---------------------------------7-7-7-7-7-7-7-7-|  x 2
  a-7-7-7-7-7-7-7-7-9-9-9-9-9-9-9-9-5-5-5-5-5-5-5-5-5-5-5-5-5-5-5-5-|
  E-----------------7-7-7-7-7-7-7-7-3-3-3-3-3-3-3-3-----------------|

 Guitar 2
  e-0---------------x---------------3---------------2~~~~~~~~~~~~~~-|
  b-0---------------3---------------0---------------3~~~~~~~~~~~~~~-|
  g-0---------------4---------------0---------------2~~~~~~~~~~~~~~-|
  d-2---------------4---------------0---------------0~~~~~~~~~~~~~~-|  x 2
  a-2---------------2---------------2-------------------------------|
  E-0---------------x---------------3-------------------------------|

 Guitar 3
  e-0---------|
  b---0-----3-|
  g-------0---|
  d-----------|  x 8
  a-----------|
  E-----------|

 Bass
  g-----------------------------------------------------------------|
  d-------------------------------------------------0~~~~~~~~~~~~~~-|
  a-----------------2~~~~~~~~~~~~~~~--------------------------------|  x 2
  E-0~~~~~~~~~~~~~~~----------------3~~~~~~~~~~~~~~~----------------|

Solo:

 Guitar 1
  e---------------------------------------------------------------------------|
  b-13-12-10---------------------13--13-12-10-----------------13--13----------|
  g----------9---10---12-----------------------9-10-12--9-10---------12-------|
  d-----------------------12-10------------------------------------------10---|
  a---------------------------------------------------------------------------|
  E---------------------------------------------------------------------------|

  e-------------------------10-10------------------------------10-10-------------|
  b---------------12-12----------------------12-12-------------------12----12--9-|
  g----12-12----9-------9-12------12--9------------12----12--9----------12-------|
  d-10-------10--------------------------10-----------10-------------------------|
  a------------------------------------------------------------------------------|
  E------------------------------------------------------------------------------|

  e-------------------|
  b-12-12-------------|
  g-------12-9--------|
  d------------10~~~~-|
  a-------------------|
  E-------------------|

Outro:

 Guitar 1
  e---------------------------      -------|
  b---------------------------      -------|
  g---------------------------      -------|
  d-9-9-------------------7-7-  x 2 -9~~~~-|
  a-7-7--9-9---5-5--5--5--5-5-      -7~~~~-|
  E------7-7---3-3--3--3------      -------|

Song Outline:

Intro
Verse
Prechorus
Chorus
Bridge
Verse
Prechorus
Chorus
Solo
Chorus x2
Outro

During the outro you'll be able to figure out what the other instruments play.
comments
We did not receive enough feedback on this tab! Please rate:
print report bad tab
1 2 3 4 5
I want to post or [tab]
guest
You may want to rate the tab now too:
select rating
Please do not post tabs as comments. Select "correction" instead!