Oops, an error
Loading. Please wait.

These Days Are Numbered - Trust Tab

89 views 1 this week
no commentswrite comment
1 2 3 4 5
excellent!
x 1
add to favorites launch autoscroll
font size
0
reset
Autoscroll
+/-
esc
set tempo
stop
Contributor
WARNING: You are trying to view
                                    content from Ultimate-Guitar.com
                                    in an unauthorized application,
                                    which is prohibited.

                                    Please use an official Ultimate
                                    Guitar Tabs application for iPhone,
                                    iPad or Android to access legitimate
                                    chords, guitar, bass, and drum tabs
                                    from Ultimate-Guitar.com database.

                                    Type "ultimate guitar tabs" in Apple
                                    App Store's or Android Market's
                                    search to find the application.
-------------------------------------------------------------------------------
                             Trust - These Days Are Numbered
-------------------------------------------------------------------------------
Tabbed by: TDANOfficial
E-mail: TDANOfficial@gmail.com

Tuning: Drop B

Guitar 1 - Adam Cox
Guitar 2 - Luke Robbins

Intro 1
Guitar 1
e|---------------------------------------------------------------------------|
B|10-10-----------10-10-----------10-10-----------10-10----------------------|
G|10-10-----------10-10-----------10-10-----------10-10----------------------|
D|0--0--0-000-000-0--0--0-000-000-0--0--0-000-000-0--0--0-000-000------------|
A|---------------------------------------------------------------------------|
E|---------------------------------------------------------------------------|
        . ... ...       . ... ...       . ... ...       . ... ...

Guitar 2
e|---------------------------------------------------------------------------|
B|--------------------------------10-10-----------10-10----------------------|
G|--------------------------------10-10-----------10-10----------------------|
D|--------------------------------0--0--0-000-000-0--0--0-000-000------------|
A|---------------------------------------------------------------------------|
E|---------------------------------------------------------------------------|
                                        . ... ...       . ... ...

Intro 2
Guitar 1
e|-----------------------------------------------------------------0---------|
B|10-10-10-101010-101010-10-10-10-101010101010-------11--------------6-------|
G|10-10-10-101010-101010-10-10-10-101010101010----------10-------------7-----|
D|0--0--0--0-0-0--0-0-0--0--0--0--0-0-0-0-0-0--8-8-8-------8-5-5-5-----------|
A|0--0--0--0-0-0--0-0-0--0--0--0--0-0-0-0-0-0--8-8-8---------5-5-5-----------|
E|0--0--0--0-0-0--0-0-0--0--0--0--0-0-0-0-0-0--8-8-8---------5-5-5-----------|
  .  .  .  . . .  . . .  .  .  .  . . . . . .  . . .         . . .
  x2

Guitar 2
e|---------------------------------------------------------------------------|
B|---------------------------------------------------------------------------|
G|---------------------------------------------------------------------------|
D|0-0-0-000-000-0-0-0-000-000-8-8-8-888-888-5-5-5-555-555--------------------|
A|0-0-0-000-000-0-0-0-000-000-8-8-8-888-888-5-5-5-555-555--------------------|
E|0-0-0-000-000-0-0-0-000-000-8-8-8-888-888-5-5-5-555-555--------------------|
  . . . ... ... . . . ... ... . . . ... ... . . . ... ...
  x2


Both Guitars
e|---------------------------------------------------------------------------|
B|---------------------------------------------------------------------------|
G|---------------------------------------------------------------------------|
D|0~-------------------------------------------------------------------------|
A|0~-------------------------------------------------------------------------|
E|0~-------------------------------------------------------------------------|

Pre Verse/Verse
Guitar 1
e|---------------------------------------------------------------------------|
B|---------------------------------------------------------------------------|
G|---------------------------------------------------------------------------|
D|0----------------0----------------5----------------8-----------------------|
A|0-8888-7777-8888-0-8888-7777-8888-5-8888-7777-8888-8-8888-7777-4444--------|
E|0----------------0----------------5----------------8-----------------------|
 x4

Guitar 1 (Harmonies)
e|---------------------------------------------------------------------------|
B|---------------------------------------------------------------------------|
G|---------------------------------------------------------------------------|
D|0-7777-5555-7777-0-7777-5555-7777-5-7777-5555-7777-8-7777-5555-------------|
A|0----------------0----------------5----------------8-----------7777--------|
E|0----------------0----------------5----------------8-----------------------|
 x2

Guitar 2
e|---------------------------------------------------------------------------|
B|---------------------------------------------------------------------------|
G|---------------------------------------------------------------------------|
D|0-----------------0-------------0-5----------------8--------------8-0~-----|
A|0-----------------0-------------0-5----------------8--------------8-0~-----|
E|0-----------------0-------------0-5----------------8--------------8-0~-----|

e|---------------------------------------------------------------------------|
B|---------------------------------------------------------------------------|
G|---------------------------------------------------------------------------|
D|----------------------------------x-x-x-x-x-x-x-x-x-x-x-x-x-x-x-x-x--------|
A|----------------------------------x-x-x-x-x-x-x-x-x-x-x-x-x-x-x-x-x--------|
E|----------------------------------x-x-x-x-x-x-x-x-x-x-x-x-x-x-x-x-x--------|

e|---------------------------------------------------------------------------|
B|---------------------------------------------------------------------------|
G|---------------------------------------------------------------------------|
D|0----------------0----------------5----------------8-----------------------|
A|0-8888-7777-8888-0-8888-7777-8888-5-8888-7777-8888-8-8888-7777-4444--------|
E|0----------------0----------------5----------------8-----------------------|
 x4


Pre Chorus
Guitar 1
e|---------------------------------------------------------------------------|
B|---------10------------------10--------------------------------------------|
G|----10------10---10-----10------10---10------------------------------------|
D|0-0----0-------0----0-0----0-------0---------------------------------------|
A|---------------------------------------------------------------------------|
E|---------------------------------------------------------------------------|
  . .    .       .    . .    .       .

Chorus
Guitar 1
e|--------------------------------------------------------------------0------|
B|---------10------------------10------------------11-------------6-----6----|
G|----10------10---10-----10------10---10-----10------10---10-7-7---7-----7--|
D|0-0----0-------0----0-0----0-------0----8-8----8-------8-------------------|
A|---------------------------------------------------------------------------|
E|---------------------------------------------------------------------------|
  . .    .       .    . .    .       .    . .    .       .     . .   .    .


e|---------------------------------------------------------0---0-------------|
B|6---------10----10--------10----10--------11----11---6-----6---------------|
G|-----10------10------10------10------10------10----7---7-------------------|
D|---0----0----------0----0----------8----8----------------------------------|
A|---------------------------------------------------------------------------|
E|---------------------------------------------------------------------------|

e|---------------------------------------------------------------------------|
B|11-11-11-10-10-10-8-8-11-11-11-10-10-10-8-8-13-13-13-11-11-11-10-10-11-11--|
G|---------------------------------------------------------------------------|
D|---------------------------------------------------------------------------|
A|---------------------------------------------------------------------------|
E|---------------------------------------------------------------------------|

e|---------------------------------------------------------------------------|
B|11-10-10-10-8-8------------------------------------------------------------|
G|---------------------------------------------------------------------------|
D|---------------------------------------------------------------------------|
A|---------------------------------------------------------------------------|
E|---------------------------------------------------------------------------|
 x2

Guitar 2
e|---------------------------------------------------------------------------|
B|---------------------------------------------------------------------------|
G|---------------------------------------------------------------------------|
D|0-0-0-0-0-0-0-0-0-0-0-0-0-0-0-0-8-8-8-8-8-8-8-8-5-5-5-5-5-5-5-5-0-0-00-0-0-|
A|0-0-0-0-0-0-0-0-0-0-0-0-0-0-0-0-8-8-8-8-8-8-8-8-5-5-5-5-5-5-5-5-0-0-00-0-0-|
E|0-0-0-0-0-0-0-0-0-0-0-0-0-0-0-0-8-8-8-8-8-8-8-8-5-5-5-5-5-5-5-5-0-0-00-0-0-|
. . .. . .

e|---------------------------------------------------------------------------|
B|---------------------------------------------------------------------------|
G|---------------------------------------------------------------------------|
D|0-0-0-00-0-0-0-8-8-88-8-8-8-5-5-55-5-5-5-----------------------------------|
A|0-0-0-00-0-0-0-8-8-88-8-8-8-5-5-55-5-5-5-----------------------------------|
E|0-0-0-00-0-0-0-8-8-88-8-8-8-5-5-55-5-5-5-----------------------------------|
  . . . .. . . . . . .. . . . . . .. . . .
  x2

Both guitars
e|---------------------------------------------------------------------------|
B|---------------------------------------------------------------------------|
G|---------------------------------------------------------------------------|
D|0~-------------------------------------------------------------------------|
A|0~-------------------------------------------------------------------------|
E|0~-------------------------------------------------------------------------|

Verse 2
Both guitars
e|---------------------------------------------------------------------------|
B|---------------------------------------------------------------------------|
G|---------------------------------------------------------------------------|
D|0----------------0----------------5----------------8-----------------------|
A|0-8888-7777-8888-0-8888-7777-8888-5-8888-7777-8888-8-8888-7777-4444--------|
E|0----------------0----------------5----------------8-----------------------|
 x2

Guitar 1
e|---------------------------------------------------------------------------|
B|---------------------------------------------------------------------------|
G|------------------------------------7---9---10-----10---9---6--------------|
D|000-000-000-000-000-000-000-000--------------------------------------------|
A|000-000-000-000-000-000-000-000--------------------------------------------|
E|000-000-000-000-000-000-000-000-5-5---5---5----8-8----8---8----------------|
  ... ... ... ... ... ... ... ... . .   .   .    . .    .   .
 x2

Guitar 2
e|---------------------------------------------------------------------------|
B|---------------------------------------------------------------------------|
G|---------------------------------------------------------------------------|
D|000-000-000-000-000-000-000-000--------------------------------------------|
A|000-000-000-000-000-000-000-000-----5---7---8-----8---7---4----------------|
E|000-000-000-000-000-000-000-000-5-5---5---5---8-8---8---8------------------|
  ... ... ... ... ... ... ... ... . .   .   .   . .   .   .
  x2

Post Chorus (Let Ring)
Both Guitars
e|---------------------------------------------------------------------------|
B|---------------------------------------------------------------------------|
G|---------------------------------------------------------------------------|
D|0-0-000-000-0-000-000-0-000-0-000-0-000-000-0-000-000-0-000-000-0-000-0----|
A|0-0-000-000-0-000-000-0-000-0-000-0-000-000-0-000-000-0-000-000-0-000-0----|
E|0-0-000-000-0-000-000-0-000-0-000-0-000-000-0-000-000-0-000-000-0-000-0----|
  . . ... ... . ... ... . ... . ... . ... ... . ... ... . ... ... . ... .

e|---------------------------------------------------------------------------|
B|---------------------------------------------------------------------------|
G|---------------------------------------------------------------------------|
D|000-0----------------------------------------------------------------------|
A|000-0----------------------------------------------------------------------|
E|000-0----------------------------------------------------------------------|
  ... .

Breakdown
Guitar 1
e|---------------------------------------------------------------------------|
B|---------------------------------------------------------------------------|
G|---------------------------------------------------------------------------|
D|000000000-000-0-0---------------000000000-000-0-0-0-----000000000-000-0-0--|
A|000000000-000-0-0-8h12p8-7h10p7-000000000-000-0-0-0-----000000000-000-0-0--|
E|000000000-000-0-0---------------000000000-000-0-0-0-1b*-000000000-000-0-0--|
  ......... ... . .               ......... ... . . .     ......... ... . .

e|---------------------------------------------------------------------------|
B|---------------------------------------------------------------------------|
G|---------------------------------------------------------------------------|
D|0-000000000-0-3p2p0-5p3p0-7p5p0-8p7p0--------------------------------------|
A|0-000000000-0--------------------------------------------------------------|
E|0-000000000-0-------------------------000000000-000-0-0-0-000000000-000-0--|
  . ......... .                         Let ring from here

e|---------------------------------------------------------------------------|
B|---------------------------------------------------------------------------|
G|---------------------------------------------------------------------------|
D|----000000000-000-0-0-0-000000000-000~-------------------------------------|
A|----000000000-000-0-0-0-000000000-000~-------------------------------------|
E|0-0-111111111-111-1-1-1-111111111-111~-------------------------------------|
      ......... ... . . . ......... ...

Guitar 2
e|---------------------------------------------------------------------------|
B|---------------------------------------------------------------------------|
G|---------------------------------------------------------------------------|
D|000000000-000-0-0-------------000000000-000-0-0-0-----000000000-000-0-0-0--|
A|000000000-000-0-0-5h8p5-4h7p4-000000000-000-0-0-0-----000000000-000-0-0-0--|
E|000000000-000-0-0-------------000000000-000-0-0-0-4b*-000000000-000-0-0-0--|
  ......... ... . .             ......... ... . . .     ......... ... . . .

e|---------------------------------------------------------------------------|
B|---------------------------------------------------------------------------|
G|---------------------------------------------------------------------------|
D|000000000-0----------------------------------------------------------------|
A|000000000-0-5p3p0-7p5p0-8p7p0-10p8p0---------------------------------------|
E|000000000-0--------------------------000000000-000-0-0-0-000000000-000-0-0-|
  ......... .                          Let ring from here

e|---------------------------------------------------------------------------|
B|---------------------------------------------------------------------------|
G|---------------------------------------------------------------------------|
D|--000000000-000-0-0-0-000000000-000----------------------------------------|
A|--000000000-000-0-0-0-000000000-000----------------------------------------|
E|0-111111111-111-1-1-1-111111111-111----------------------------------------|
    ......... ... . . . ......... ...

Post Breakdown
Guitar 1
e|--------------------------------------------------------------------0-------|
B|---------10------------------10------------------11-------------6-----6---6-|
G|----10------10---10-----10------10---10-----10------10---10-7-7---7-----7---|
D|0-0----0-------0----0-0----0-------0----8-8----8-------8--------------------|
A|----------------------------------------------------------------------------|
E|----------------------------------------------------------------------------| x2

Guitar 2
e|---------------------------------------------------------------------------|
B|11-11-11-10-10-10-8-8-11-11-11-10-10-10-8-8-13-13-13-11-11-11-10-10-11-11--|
G|---------------------------------------------------------------------------|
D|---------------------------------------------------------------------------|
A|---------------------------------------------------------------------------|
E|---------------------------------------------------------------------------|

e|---------------------------------------------------------------------------|
B|11-10-10-10-8-8------------------------------------------------------------|
G|---------------------------------------------------------------------------|
D|---------------------------------------------------------------------------|
A|---------------------------------------------------------------------------|
E|---------------------------------------------------------------------------|
 x2

END ON OPEN CHORD

Song Layout
Intro
Verse
Pre Chorus
Chorus
Verse
Pre Chorus
Chorus
Pre Breakdown
Breakdown
Post Breakdown
Chorus


All rights reserved to These Days Are Numbered.

Words and music by Scott Swinscoe, Adam Cox and Luke Robbins. 

************************************
| .   palm mute
| /   slide up
| \   slide down
| h   hammer-on
| p   pull-off
| ~   vibrato
| +   harmonic
| x   Mute note
| b   Bend
| pb  Pre-bend
| br  Bend release
| pbr Pre-bend release
| brb Bend release bend
|  ~  Let ring
|  *  Pinch Harmonic
************************************
comments
We did not receive enough feedback on this tab! Please rate:
print report bad tab
1 2 3 4 5
I want to post or [tab]
guest
You may want to rate the tab now too:
select rating
Please do not post tabs as comments. Select "correction" instead!