Oops, an error
Loading. Please wait.

This Final Day - Constructions Tab

44 views 1 this week
no commentswrite comment
1 2 3 4 5
please rate
Autoscroll
+/-
esc
set tempo
stop
Contributor
Difficulty
Tuning
intermediate
C G C F A D
Hey! There's an official Ultimate Guitar app which is ideal
for learning songs when you're away from computer. Get the app
WARNING: You are trying to view
                                    content from Ultimate-Guitar.com
                                    in an unauthorized application,
                                    which is prohibited.

                                    Please use an official Ultimate
                                    Guitar Tabs application for iPhone,
                                    iPad or Android to access legitimate
                                    chords, guitar, bass, and drum tabs
                                    from Ultimate-Guitar.com database.

                                    Type "ultimate guitar tabs" in Apple
                                    App Store's or Android Market's
                                    search to find the application.
Constructions Tab Drop C.txt

D  :----------------|--------------------8--|--------------------8-|
A  :----------------|-----------------------|----------------------|
F  :----------------|------------------9----|----------------9-----|
C  :----------------|--7-6-----6------------|--7-6---6-------------|
G  :----------------|0-----8-------7--------|0-----8-----7---------|
C  :----------------|0----------------------|0---------------------|

D  :----------------|-----------------------|----------------------|
A  :----------------|-----------------------|----------------------|
F  :----------------|-----------------------|----------------------|
C  :----------------|-----------------------|----------------------|
G  :----------------|0-*---0-0-0-0-0-0-0*--0|0-*-0-*-0-0-0-0-0-0-0*|
C  :----------------|0-*---0-0-0-0-0-0-0*--0|0-*-0-*-0-0-0-0-0-0-0*|

F  :----------------|-----------------------|----------------------|
C  :----------------|-----------------------|----------------------|
G  :----------------|-----------------------|----------------------|
C  :----------------|0-*---0-0-0-0-0-0-0*--0|0-*-0-*-0-0-0-0-0-0-0*|

============================================================================

D  :----------------------8--|---------------------------|
A  :-------------------------|---------------------------|
F  :--------------------9----|--------------------9------|
C  :----7---6-----6----------|----7---6-----6------------|
G  :0-----------8-----7------|0---------8-----7----------|
C  :0------------------------|0--------------------------|

D  :-------------------------|---------------------------|
A  :-------------------------|---------------------------|
F  :-------------------------|---------------------------|
C  :-------------------------|---------------------------|
G  :0-0-*-0-*-0-0*0-0-0*0*0-0|0-0-0-0-0*0-0-0*0-0-0-0-0-0|
C  :0-0-*-0-*-0-0*0-0-0*0*0-0|0-0-0-0-0*0-0-0*0-0-0-0-0-0|

F  :-------------------------|---------------------------|
C  :-------------------------|---------------------------|
G  :-------------------------|---------------------------|
C  :0-0-*-0-*-0-0*0-0-0*0*0-0|0-0-0-0-0*0-0-0*0-0-0-0-0-0|

============================================================================

D  :------------------8--|--------------------8-|----------------------8-|
A  :---------------------|----------------------|------------------------|
F  :----------------9----|----------------9-----|--------------------9---|
C  :--7-6---6------------|--7-6---6-------------|----7---6-----6---------|
G  :0-----8-----7--------|0-----8-----7---------|0-----------8-----7-----|
C  :0--------------------|0---------------------|0-----------------------|

D  :---------------------|----------------------|------------------------|
A  :---------------------|----------------------|------------------------|
F  :---------------------|----------------------|------------------------|
C  :---------------------|----------------------|------------------------|
G  :0-*---0*0-0-0-0-0*--0|0-*-0-*-0-0-0-0-0-0-0*|0-0-*-0-*-0-0*0-0-0*0*0*|
C  :0-*---0*0-0-0-0-0*--0|0-*-0-*-0-0-0-0-0-0-0*|0-0-*-0-*-0-0*0-0-0*0*0*|

F  :---------------------|----------------------|------------------------|
C  :---------------------|----------------------|------------------------|
G  :---------------------|----------------------|------------------------|
C  :0-*---0x0-0-0-0-0*--0|0-*-0-*-0-0-0-0-0-0-0*|0-0-*-0-*-0-0*0-0-0*0*0*|

============================================================================

D  :--------------------------|------------------|
A  :--------------------------|------------------|
F  :--------------------9-----|*-----------------|
C  :----7---6-----6-----------|------------------|
G  :0---------8-----7---------|------------------|
C  :0-------------------------|------------------|

D  :--------------------------|------------------|
A  :--------------------------|------------------|
F  :--------------------------|------------------|
C  :--------------------------|------------------|
G  :0-0-0-0-0*0-0-0*0-0-0-0-0-|*-----------------|
C  :0-0-0-0-0*0-0-0*0-0-0-0-0-|*-----------------|

F  :--------------------------|------------------|
C  :--------------------------|------------------|
G  :--------------------------|------------------|
C  :0-0-0-0-0*0-0-0*0-0-0-0-0-|0-0-0-0-0---------|

============================================================================

D  :9---13-9----9--------------|------------8---------9-|
A  :---------13----------13-10-|11------------10--------|
F  :----------------10---------|---10-11-----------10---|
C  :---------------------------|---------10-------------|
G  :---------------------------|------------------------|
C  :---------------------------|------------------------|

D  :---------------------------|------------------------|
A  :---------------------------|------------------------|
F  :---------------------------|------------------------|
C  :---------------------------|------------------------|
G  :0-0--0-0--0-0-0--0-0-----0-|-0----------0--0-0----0-|
C  :3-3--3-3x-3-3-3--3-3--x--3-|-3--x--0--0-3--3-3--x-3-|

F  :---------------------------|------------------------|
C  :---------------------------|------------------------|
G  :---------------------------|------------------------|
C  :3-3--3-3x-3-3-3--3-3-----3-|-3--x--0--0-3--3-3--x-3-|

============================================================================

D  :8--------------8---------------12--------|8--------8---------12---13--|
A  :----10-------------12---------------12---|--10-------12---------------|
F  :-----------9--------------13-------------|-------9--------13----------|
C  :-----------------------------------------|----------------------------|
G  :-----------------------------------------|----------------------------|
C  :-----------------------------------------|----------------------------|

D  :-----------------------------------------|----------------------------|
A  :-----------------------------------------|----------------------------|
F  :-----------------------------------------|----------------------------|
C  :-----------------------------------------|----------------------------|
G  :0----0-0-0-----0----0-0-0-------0-0--0-0-|0--0-0---0--0-0-----0-0----0|
C  :0----2-2-2-x---0----2-2-2--x----2-2--2-2-|2--2-2-x-2--2-2--x--2-2--x-2|

F  :-----------------------------------------|----------------------------|
C  :-----------------------------------------|----------------------------|
G  :-----------------------------------------|----------------------------|
C  :0----2-2-2-x---0----2-2-2--x----2-2--2-2-|2--2-2-x-2--2-2--x--2-2--x-2|

============================================================================

D  :9-13---9----9---------------|--------------8---------9-|
A  :---------13--------13---10--|11--------------10--------|
F  :----------------10----------|---10-11-------------10---|
C  :----------------------------|-----------10-------------|
G  :----------------------------|--------------------------|
C  :----------------------------|--------------------------|

D  :----------------------------|--------------------------|
A  :----------------------------|--------------------------|
F  :----------------------------|--------------------------|
C  :----------------------------|--------------------------|
G  :0--0-0----0-0-0-----0-0----0|-0--0--0-0----0--0-0----0-|
C  :3--3-3-x--3-3-3--x--3-3--x-3|-3x-3--3-3--x-3--3-3--x-3-|

F  :----------------------------|--------------------------|
C  :----------------------------|--------------------------|
G  :----------------------------|--------------------------|
C  :3--3-3-x--3-3-3--x--3-3--x-3|-3x-3--3-3--x-3--3-3--x-3-|

============================================================================

D  :8--------8---------12-------|8--------------8---------------------|
A  :--10-------12-----------12--|----10-------------------------------|
F  :-------9--------13----------|---------9---------------------------|
C  :----------------------------|-------------------------------------|
G  :----------------------------|-------------------0---0-0-0-----0---|
C  :----------------------------|-------------------5---5-5-5-x---5---|

D  :----------------------------|-------------------------------------|
A  :----------------------------|-------------------------------------|
F  :----------------------------|-------------------------------------|
C  :----------------------------|-------------------------------------|
G  :0--0-0---0--0-0-----0-0----0|0----0---0-0-0-----0---0-0-0-----0---|
C  :2--2-2-x-2--2-2--x--2-2--x-2|2-x--2---2-2-2-x---5---5-5-5-x---5---|

F  :----------------------------|-------------------------------------|
C  :----------------------------|-------------------------------------|
G  :----------------------------|-------------------------------------|
C  :2--2-2-x-2--2-2--x--2-2--x-2|2-x--2---2-2-2-x---5---5-5-5-x---5---|

============================================================================

D  :---------------------|-----------------|
A  :---------------------|-----------------|
F  :---------------------|-----------------|
C  :---------------------|-----------------|
G  :0-0-0-0-0-0-0-0-0--0-|0-------0-0-0--0-|
C  :3-3-3-3x3-3-3-3-3x-3-|3-x-0-0-3-3-3x-3-|

D  :---------------------|-----------------|
A  :---------------------|-----------------|
F  :---------------------|-----------------|
C  :---------------------|-----------------|
G  :0-0-0-0-0-0-0-0-0--0-|0-------0-0-0--0-|
C  :3-3-3-3x3-3-3-3-3x-3-|3-x-0-0-3-3-3x-3-|

F  :---------------------|-----------------|
C  :---------------------|-----------------|
G  :---------------------|-----------------|
C  :3-3-3-3x3-3-3-3-3--3-|3-x-0-0-3-3-3x-3-|

============================================================================

D  :------------------------------------|-------------------|
A  :------------------------------------|-------------------|
F  :------------------------------------|-------------------|
C  :------------------------------------|-------------------|
G  :0---0-0-0-----0---0-0-0-----0-0-0-0-|0-0-0--0-0-0--0-0-0|
C  :2---2-2-2-x---2---2-2-2-x---2-2-2-2-|2-2-2x-2-2-2x-2-2x2|

D  :------------------------------------|-------------------|
A  :------------------------------------|-------------------|
F  :------------------------------------|-------------------|
C  :------------------------------------|-------------------|
G  :0---0-0-0-----0---0-0-0-----0-0-0-0-|0-0-0--0-0-0--0-0-0|
C  :2---2-2-2-x---2---2-2-2-x---2-2-2-2-|2-2-2x-2-2-2x-2-2x2|

F  :------------------------------------|-------------------|
C  :------------------------------------|-------------------|
G  :------------------------------------|-------------------|
C  :2---2-2-2-x---2---2-2-2-x---2-2-2-2-|2-2-2x-2-2-2x-2-2x2|

============================================================================

D  :-------------------|------------------|-------------------|
A  :-------------------|------------------|-------------------|
F  :-------------------|------------------|-------------------|
C  :-------------------|------------------|-------------------|
G  :0-0-0--0-0-0--0-0-0|0-0-0-0--0-0-0--0-|0-0-0--0-0-0--0-0-0|
C  :3-3-3x-3-3-3x-3-3x3|3x3-3-3x-3-3-3x-3-|2-2-2x-2-2-2x-2-2x2|

D  :-------------------|------------------|-------------------|
A  :-------------------|------------------|-------------------|
F  :-------------------|------------------|-------------------|
C  :-------------------|------------------|-------------------|
G  :0-0-0--0-0-0--0-0-0|0-0-0-0--0-0-0--0-|0-0-0--0-0-0--0-0-0|
C  :3-3-3x-3-3-3x-3-3x3|3x3-3-3x-3-3-3x-3-|2-2-2x-2-2-2x-2-2x2|

F  :-------------------|------------------|-------------------|
C  :-------------------|------------------|-------------------|
G  :-------------------|------------------|-------------------|
C  :3-3-3x-3-3-3x-3-3x3|3x3-3-3x-3-3-3x-3-|2-2-2x-2-2-2x-2-2x2|

============================================================================

D  :----------------------------------|------------------|----------------|
A  :----------------------------------|------------------|----------------|
F  :----------------------------------|------------------|7---------------|
C  :----------------------------------|------7-----7-----|--8---7-8-7-----|
G  :0---0---0-0-0-----0---0-0-----0---|--------4-----4---|----5-------8-7-|
C  :2-x-2---2-2-2-x---5---0-0-x---0---|0-0-0-----0-----0-|----------------|

D  :----------------------------------|------------------|----------------|
A  :----------------------------------|------------------|----------------|
F  :----------------------------------|------------------|7---------------|
C  :----------------------------------|------7-----7-----|--8---7-8-7-----|
G  :0---0---0-0-0-----0---0-0-----0---|--------4-----4---|----5-------8-7-|
C  :2-x-2---2-2-2-x---5---0-0-x---0---|0-0-0-----0-----0-|----------------|

F  :----------------------------------|------------------|7---------------|
C  :----------------------------------|------7-----7-----|--8---7-8-7-----|
G  :----------------------------------|--------4-----4---|----5-------8-7-|
C  :2-x-2---2-2-2-x---5---0-0-x---0---|0-0-0-----0-----0-|----------------|

============================================================================

D  :--------------------|--------------------|------------------|
A  :--------------------|--------------------|------------------|
F  :--------------------|------------------2-|------------------|
C  :--------------------|--------------------|------7-----7-----|
G  :8-------7-----8-7-0-|1-0-----------1-4---|--------4-----4---|
C  :--0-0-0---3---------|----3-2-h3-p2-------|0-0-0-----0-----0-|

D  :--------------------|--------------------|------------------|
A  :--------------------|--------------------|------------------|
F  :--------------------|------------------2-|------------------|
C  :--------------------|--------------------|------7-----7-----|
G  :8-------7-----8-7-0-|1-0-----------1-4---|--------4-----4---|
C  :--0-0-0---3---------|----3-2-h3-p2-------|0-0-0-----0-----0-|

F  :--------------------|------------------2-|------------------|
C  :--------------------|--------------------|------7-----7-----|
G  :8-------7-----8-7-0-|1-0-----------1-4---|--------4-----4---|
C  :--0-0-0---3-3-------|----3-2-h3-p2-------|0-0-0-----0-----0-|

============================================================================

D  :----------------|--------------------|--------------------|
A  :----------------|--------------------|--------------------|
F  :7---------------|--------------------|------------------2-|
C  :--8---7-8-7-----|--------------------|--------------------|
G  :----5-------8-7-|8-------7-----8-7-0-|1-0-----------1-4---|
C  :----------------|--0-0-0---3---------|----3-2-h3-p2-------|

D  :----------------|--------------------|--------------------|
A  :----------------|--------------------|--------------------|
F  :7---------------|--------------------|------------------2-|
C  :--8---7-8-7-----|--------------------|--------------------|
G  :----5-------8-7-|8-------7-----8-7-0-|1-0-----------1-4---|
C  :----------------|--0-0-0---3-3-------|----3-2-h3-p2-------|

F  :7---------------|--------------------|------------------2-|
C  :--8---7-8-7-----|--------------------|--------------------|
G  :----5-------8-7-|8-------7-----8-7-0-|1-0-----------1-4---|
C  :----------------|--0-0-0---3-3-------|----3-2-h3-p2-------|

============================================================================

D  :-----------------------|------------------------|------------------|
A  :-----------------------|------------------------|------------------|
F  :-----------------------|------------------------|------------------|
C  :------6----------------|------------------------|------------5-----|
G  :0-0-0---0-0-0-0-0-0-0-0|--0-0-0-0-0-0-0-0-0-0---|--------0-0-------|
C  :0-0-0*--0-0*0*0-0-0-0-0|*-0-0-0*0-0-0-0-0-0-0*--|--------0-0---0*--|

D  :-----------------------|------------------------|------------------|
A  :-----------------------|------------------------|------------------|
F  :-----------------------|------------------------|------------------|
C  :-----------------------|------------------------|------------------|
G  :0-0-0-8-0-0-0-0-0-0-0-0|--0-0-0-0-0-0-0-0-0-0---|--------0-0-7-----|
C  :0-0-0*--0-0*0*0-0-0-0-0|*-0-0-0*0-0-0-0-0-0-0*--|--------0-0---0*--|

F  :-----------------------|------------------------|------------------|
C  :-----------------------|------------------------|------------------|
G  :------8----------------|------------------------|--------0-0-7-----|
C  :0-0-0*--0-0*0*0-0-0-0-0|*-0-0-0*0-0-0-0-0-0-0*--|--------0-0---0*--|

============================================================================

D  :----------------|-----------------------|------------------------|
A  :----------------|-----------------------|------------------------|
F  :----------------|-----------------------|------------------------|
C  :----------------|------6----------------|------------------------|
G  :--------0-0-----|0-0-0---0-0-0-0-0-0-0-0|--0-0-0-0-0-0-0-0-0-0---|
C  :--------1-0-*---|0-0-0*--0-0*0*0-0-0-0-0|*-0-0-0*0-0-0-0-0-0-0*--|

D  :----------------|-----------------------|------------------------|
A  :----------------|-----------------------|------------------------|
F  :----------------|-----------------------|------------------------|
C  :----------------|-----------------------|------------------------|
G  :--------0-0-----|0-0-0-8-0-0-0-0-0-0-0-0|--0-0-0-0-0-0-0-0-0-0---|
C  :--------1-0-*---|0-0-0*--0-0*0*0-0-0-0-0|*-0-0-0*0-0-0-0-0-0-0*--|

F  :----------------|-----------------------|------------------------|
C  :----------------|-----------------------|------------------------|
G  :----------------|------8----------------|------------------------|
C  :--------1-0-*---|0-0-0*--0-0*0*0-0-0-0-0|*-0-0-0*0-0-0-0-0-0-0*--|

============================================================================

D  :------------------|----------------|--------------------|
A  :------------------|----------------|--------------------|
F  :------------------|----------------|--------------------|
C  :------------5-----|----------------|-------8------------|
G  :--------0-0-------|--------0-0-----|5-5-5----5-5-5-5-5-5|
C  :--------0-0---0*--|--------1-0-*---|5-5-5x-----5x5-5-5-5|

D  :------------------|----------------|--------------------|
A  :------------------|----------------|--------------------|
F  :------------------|----------------|--------------------|
C  :------------------|----------------|-------8------------|
G  :--------0-0-7-----|--------0-0-----|5-5-5----5-5-5-5-5-5|
C  :--------0-0---0*--|--------1-0-*---|5-5-5x-----5x5-5-5-5|

F  :------------------|----------------|--------------------|
C  :------------------|----------------|-------8------------|
G  :--------0-0-7-----|----------------|---------5----------|
C  :--------0-0---0*--|--------1-0-*---|5-5-5x-----5x5-5-5-5|

============================================================================

D  :------------------|--------------------|------------------|
A  :------------------|--------------------|------------------|
F  :-------------10---|--------------------|-------------10---|
C  :-------8--------8-|-------8------------|-------8--------8-|
G  :5-5-5----5-0------|5-5-5----5-5-5-5-5-5|5-5-5----5-0------|
C  :5-5-5x-----0------|5-5-5x-----5x5-5-5-5|5-5-5x-----0------|

D  :------------------|--------------------|------------------|
A  :------------------|--------------------|------------------|
F  :-------------10---|--------------------|-------------10---|
C  :-------8--------8-|-------8------------|-------8--------8-|
G  :5-5-5----5-0------|5-5-5----5-5-5-5-5-5|5-5-5----5-0------|
C  :5-5-5x-----0------|5-5-5x-----5x5-5-5-5|5-5-5x-----0------|

F  :-------------10---|--------------------|-------------10---|
C  :-------8--------8-|-------8------------|-------8--------8-|
G  :---------5--------|---------5----------|---------5--------|
C  :5-5-5x-----0------|5-5-5x-----5x5-5-5-5|5-5-5x-----0------|

============================================================================

D  :--------------------|-----------------|--------------------|
A  :--------------------|-----------------|--------------------|
F  :--------------------|-----------------|--------------------|
C  :-------3------------|-------3-1-0-----|-------3------------|
G  :1-1-1----1-1-1-1-1-1|1-1-1--------1-0-|1-1-1----1-1-1-1-1-1|
C  :1-1-1x-----1x1-1-1-1|1-1-1x-----------|1-1-1x-----1x1-1-1-1|

D  :--------------------|-----------------|--------------------|
A  :--------------------|-----------------|--------------------|
F  :--------------------|-----------------|--------------------|
C  :-------3------------|-------3-1-0-----|-------3------------|
G  :1-1-1----1-1-1-1-1-1|1-1-1--------1-0-|1-1-1----1-1-1-1-1-1|
C  :1-1-1x-----1x1-1-1-1|1-1-1x-----------|1-1-1x-----1x1-1-1-1|

F  :--------------------|-----------------|--------------------|
C  :-------3------------|-------3-1-0-----|-------3------------|
G  :---------1----------|-------------1-0-|--------------------|
C  :1-1-1x-----1x1-1-1-1|1-1-1x-----------|1-1-1x-----1x1-1-1-1|

============================================================================

D  :-----------------|--------------------|------------------|
A  :-----------------|--------------------|------------------|
F  :-------------2-3-|--------------------|-------------10---|
C  :-------3-1-0-----|-------8------------|-------8--------8-|
G  :1-1-1------------|5-5-5----5-5-5-5-5-5|5-5-5----5-0------|
C  :1-1-1x-----------|5-5-5x-----5x5-5-5-5|5-5-5x-----0------|

D  :-----------------|--------------------|------------------|
A  :-----------------|--------------------|------------------|
F  :-------------2-3-|--------------------|-------------10---|
C  :-------3-1-0-----|-------8------------|-------8--------8-|
G  :1-1-1------------|5-5-5----5-5-5-5-5-5|5-5-5----5-0------|
C  :1-1-1x-----------|5-5-5x-----5x5-5-5-5|5-5-5x-----0------|

F  :-------------2-3-|--------------------|-------------10---|
C  :-------3-1-0-----|-------8------------|-------8--------8-|
G  :-----------------|---------5----------|---------5--------|
C  :1-1-1x-----------|5-5-5x-----5x5-5-5-5|5-5-5x-----0------|

============================================================================

D  :--------------------|------------------|---------|-----------|
A  :--------------------|------------------|---------|-----------|
F  :--------------------|-------------10---|---------|-----------|
C  :-------8------------|-------8--------8-|-------3-|-----------|
G  :5-5-5----5-5-5-5-5-5|5-5-5----5-0------|1-1-1----|1-1-1-1-1-1|
C  :5-5-5x-----5x5-5-5-5|5-5-5x-----0------|1-1-1x---|--1x1-1-1-1|

D  :--------------------|------------------|---------|-----------|
A  :--------------------|------------------|---------|-----------|
F  :--------------------|-------------10---|---------|-----------|
C  :-------8------------|-------8--------8-|-------3-|-----------|
G  :5-5-5----5-5-5-5-5-5|5-5-5----5-0------|1-1-1----|1-1-1-1-1-1|
C  :5-5-5x-----5x5-5-5-5|5-5-5x-----0------|1-1-1x---|--1x1-1-1-1|

F  :--------------------|-------------10---|---------|-----------|
C  :-------8------------|-------8--------8-|-------3-|-----------|
G  :---------5----------|---------5--------|---------|1----------|
C  :5-5-5x-----5x5-5-5-5|5-5-5x-----0------|1-1-1x---|--1x1-1-1-1|

============================================================================

D  :-----------------|--------------------|-----------------|
A  :-----------------|--------------------|-----------------|
F  :-----------------|--------------------|-------------2-3-|
C  :-------3-1-0-----|-------3------------|-------3-1-0-----|
G  :1-1-1--------1-0-|1-1-1----1-1-1-1-1-1|1-1-1------------|
C  :1-1-1x-----------|1-1-1x-----1x1-1-1-1|1-1-1x-----------|

D  :-----------------|--------------------|-----------------|
A  :-----------------|--------------------|-----------------|
F  :-----------------|--------------------|-------------2-3-|
C  :-------3-1-0-----|-------3------------|-------3-1-0-----|
G  :1-1-1--------1-0-|1-1-1----1-1-1-1-1-1|1-1-1------------|
C  :1-1-1x-----------|1-1-1x-----1x1-1-1-1|1-1-1x-----------|

F  :-----------------|--------------------|-------------2-3-|
C  :-------3-1-0-----|-------3------------|-------3-1-0-----|
G  :-------------1-0-|--------------------|-----------------|
C  :1-1-1x-----------|1-1-1x-----1x1-1-1-1|1-1-1x-----------|

============================================================================

D  :----------------|--------------------|----------------|----------------|
A  :----------------|--------------------|----------------|----------------|
F  :----------------|--------------------|----------------|----------------|
C  :8-8-8-8-8-8-8-8-|12-12-12-12-7-7-7-7-|5-5-5-5-5-5-5-5-|3-3-3-3-1-1-1-1-|
G  :5-5-5-5-5-5-5-5-|-8--8--8--8-3-3-3-3-|1-1-1-1-1-1-1-1-|1-1-1-1-1-1-1-1-|
C  :5-5-5-5-5-5-5-5-|-8--8--8--8-3-3-3-3-|1-1-1-1-1-1-1-1-|1-1-1-1-1-1-1-1-|

D  :----------------|--------------------|----------------|----------------|
A  :----------------|--------------------|----------------|----------------|
F  :----------------|--------------------|----------------|----------------|
C  :8-8-8-8-8-8-8-8-|12-12-12-12-7-7-7-7-|5-5-5-5-5-5-5-5-|3-3-3-3-1-1-1-1-|
G  :5-5-5-5-5-5-5-5-|-8--8--8--8-3-3-3-3-|1-1-1-1-1-1-1-1-|1-1-1-1-1-1-1-1-|
C  :5-5-5-5-5-5-5-5-|-8--8--8--8-3-3-3-3-|1-1-1-1-1-1-1-1-|1-1-1-1-1-1-1-1-|

F  :----------------|--------------------|----------------|----------------|
C  :----------------|--------------------|----------------|----------------|
G  :----------------|--------------------|----------------|----------------|
C  :5---------------|-8----------3-------|1---------------|----------------|

============================================================================

D  :----------------|--------------------|----------------|----------------|
A  :----------------|--------------------|----------------|----------------|
F  :----------------|--------------------|----------------|----------------|
C  :8-8-8-8-8-8-8-8-|12-12-12-12-7-7-7-7-|5-5-5-5-5-5-5-5-|3-3-3-3-1-1-1-1-|
G  :5-5-5-5-5-5-5-5-|-8--8--8--8-3-3-3-3-|1-1-1-1-1-1-1-1-|1-1-1-1-1-1-1-1-|
C  :5-5-5-5-5-5-5-5-|-8--8--8--8-3-3-3-3-|1-1-1-1-1-1-1-1-|1-1-1-1-1-1-1-1-|

D  :----------------|--------------------|----------------|----------------|
A  :----------------|--------------------|----------------|----------------|
F  :----------------|--------------------|----------------|----------------|
C  :8-8-8-8-8-8-8-8-|12-12-12-12-7-7-7-7-|5-5-5-5-5-5-5-5-|3-3-3-3-1-1-1-1-|
G  :5-5-5-5-5-5-5-5-|-8--8--8--8-3-3-3-3-|1-1-1-1-1-1-1-1-|1-1-1-1-1-1-1-1-|
C  :5-5-5-5-5-5-5-5-|-8--8--8--8-3-3-3-3-|1-1-1-1-1-1-1-1-|1-1-1-1-1-1-1-1-|

F  :----------------|--------------------|----------------|----------------|
C  :----------------|--------------------|----------------|----------------|
G  :----------------|--------------------|----------------|----------------|
C  :5---------------|-8----------3-------|1---------------|----------------|

============================================================================

D  :-----10------11-10----|------------------------|
A  :8-11----11---------11-|---11-10----13-11-10-11-|
F  :-----------8----------|-8-------10-------------|
C  :----------------------|------------------------|
G  :----------------------|------------------------|
C  :----------------------|------------------------|

D  :----------------------|------------------------|
A  :----------------------|------------------------|
F  :----------------------|------------------------|
C  :8--8--8--8-8--8--8--8-|12-12-12-12--7--7--7--7-|
G  :5--5--5--5-5--5--5--5-|-8--8--8--8--3--3--3--3-|
C  :5--5--5--5-5--5--5--5-|-8--8--8--8--3--3--3--3-|

F  :----------------------|------------------------|
C  :----------------------|------------------------|
G  :----------------------|------------------------|
C  :5---------------------|-8-----------3----------|

============================================================================

D  :13-------13-------13-15-|13-11-10----10----------|
A  :---11-11----10-11-------|---------11----11-------|
F  :------------------------|------------------14-15-|
C  :------------------------|------------------------|
G  :------------------------|------------------------|
C  :------------------------|------------------------|

D  :------------------------|------------------------|
A  :------------------------|------------------------|
F  :------------------------|------------------------|
C  :-5--5--5--5--5--5--5--5-|-3--3--3--3--1--1--1--1-|
G  :-1--1--1--1--1--1--1--1-|-1--1--1--1--1--1--1--1-|
C  :-1--1--1--1--1--1--1--1-|-1--1--1--1--1--1--1--1-|

F  :------------------------|------------------------|
C  :------------------------|------------------------|
G  :------------------------|------------------------|
C  :-1----------------------|------------------------|

============================================================================

D  :-----10------11-10----|------------------------|
A  :8-11----11---------11-|---11-10----13-11-10-11-|
F  :-----------8----------|-8-------10-------------|
C  :----------------------|------------------------|
G  :----------------------|------------------------|
C  :----------------------|------------------------|

D  :----------------------|------------------------|
A  :----------------------|------------------------|
F  :----------------------|------------------------|
C  :8--8--8--8-8--8--8--8-|12-12-12-12--7--7--7--7-|
G  :5--5--5--5-5--5--5--5-|-8--8--8--8--3--3--3--3-|
C  :5--5--5--5-5--5--5--5-|-8--8--8--8--3--3--3--3-|

F  :----------------------|------------------------|
C  :----------------------|------------------------|
G  :----------------------|------------------------|
C  :5---------------------|-8-----------3----------|

============================================================================

D  :13-------13-------13-15-|13-11-10----10----------|----------------|
A  :---11-11----10-11-------|---------11----11-------|----------------|
F  :------------------------|------------------14-15-|----------------|
C  :------------------------|------------------------|----------------|
G  :------------------------|------------------------|----------------|
C  :------------------------|------------------------|----------------|

D  :------------------------|------------------------|----------------|
A  :------------------------|------------------------|----------------|
F  :------------------------|------------------------|----------------|
C  :-5--5--5--5--5--5--5--5-|-3--3--3--3--1--1--1--1-|----------------|
G  :-1--1--1--1--1--1--1--1-|-1--1--1--1--1--1--1--1-|----------------|
C  :-1--1--1--1--1--1--1--1-|-1--1--1--1--1--1--1--1-|----------------|

F  :------------------------|------------------------|----------------|
C  :------------------------|------------------------|----------------|
G  :------------------------|------------------------|----------------|
C  :-1----------------------|------------------------|----------------|

============================================================================

D  :------------------|------------------|------------------|
A  :------------------|------------------|------------------|
F  :----9-------------|9-----------------|----9-------------|
C  :--7---------------|--7---------------|--7---------------|
G  :------8-5-7-------|----5-7-0-0-0-0-0-|------8-5-7-------|
C  :8-----------0-0-0-|--------0-0-0-0-0-|8-----------0-0-0-|

D  :------------------|------------------|------------------|
A  :------------------|------------------|------------------|
F  :----9-------------|9-----------------|----9-------------|
C  :--7---------------|--7---------------|--7---------------|
G  :------8-5-7-------|----5-7-0-0-0-0-0-|------8-5-7-------|
C  :8-----------0-0-0-|--------0-0-0-0-0-|8-----------0-0-0-|

F  :----9-------------|9-----------------|----9-------------|
C  :--7---------------|--7---------------|--7---------------|
G  :------8-5-7-------|----5-7-----------|------8-5-7-------|
C  :8-----------0-0-0-|--------0-0-0-0-0-|8-----------0-0-0-|

============================================================================

D  :-----------------10----|------------------|------------------|
A  :--------------10----10-|------------------|------------------|
F  :10---------10----------|----9-------------|9-----------------|
C  :---7-------------------|--7---------------|--7---------------|
G  :-----------------------|------8-5-7-------|----5-7-0-0-0-0-0-|
C  :-----0-0-0-------------|8-----------0-0-0-|--------0-0-0-0-0-|

D  :-----------------10----|------------------|------------------|
A  :--------------10----10-|------------------|------------------|
F  :10---------10----------|----9-------------|9-----------------|
C  :---7-------------------|--7---------------|--7---------------|
G  :-----------------------|------8-5-7-------|----5-7-0-0-0-0-0-|
C  :-----0-0-0-------------|8-----------0-0-0-|--------0-0-0-0-0-|

F  :10---------10----------|----9-------------|9-----------------|
C  :---7-------------------|--7---------------|--7---------------|
G  :-----------------------|------8-5-7-------|----5-7-----------|
C  :-----0-0-0-------------|8-----------0-0-0-|--------0-0-0-0-0-|

============================================================================

D  :------------------|-----------------10----|---------------------|
A  :------------------|--------------10----10-|---------------------|
F  :----9-------------|10---------10----------|---------------------|
C  :--7---------------|---7-------------------|---------------------|
G  :------8-5-7-------|-----------------------|0-0-4-0-0-0-0-0-4-0-0|
C  :8-----------0-0-0-|-----0-0-0-------------|0-0---0-0-0-0*0---0-0|

D  :------------------|-----------------10----|---------------------|
A  :------------------|--------------10----10-|---------------------|
F  :----9-------------|10---------10----------|---------------------|
C  :--7---------------|---7-------------------|---------------------|
G  :------8-5-7-------|-----------------------|0-0-7-0-0-0-0-0-7-0-0|
C  :8-----------0-0-0-|-----0-0-0-------------|0-0---0-0-0-0*0---0-0|

F  :----9-------------|10---------10----------|---------------------|
C  :--7---------------|---7-------------------|---------------------|
G  :------8-5-7-------|-----------------------|----4-----------4----|
C  :8-----------0-0-0-|-----0-0-0-------------|0-0---0-0-0-0*0---0-0|

============================================================================

D  :------------------|----------------------|----------------|
A  :------------------|----------------------|----------------|
F  :------------------|----------------------|----------------|
C  :------------------|----------------------|----------------|
G  :4-------3-3-3-3-4-|4-0-0-4-0-0-0-0--0-0--|0--0----3--3--3-|
C  :------------------|--0-0---0-0-0-0--0-0--|1--1--0---------|

D  :------------------|----------------------|----------------|
A  :------------------|----------------------|----------------|
F  :------------------|----------------------|----------------|
C  :------------------|----------------------|----------------|
G  :7-------6-6-6-6-7-|7-0-0-7-0-0-0-0--0-0--|0--0----6--6--6-|
C  :------------------|--0-0---0-0-0-0--0-0--|1--1--0---------|

F  :------------------|----------------------|----------------|
C  :------------------|----------------------|----------------|
G  :4-------3-3-3-3-4-|4-----4---------------|--------3--3--3-|
C  :------------------|--0-0---0-0-0-0--0-0--|1--1--0---------|

============================================================================

D  :---------------------|------------------|----------------------|
A  :---------------------|------------------|----------------------|
F  :---------------------|------------------|----------------------|
C  :---------------------|------------------|----------------------|
G  :4-0-4-0-0-0-0-0-4-0-0|4-------3-3-3-3-4-|4-0-0-4-0-0-0-0--0-0--|
C  :--0---0-0-0-0*0---0-0|------------------|--0-0---0-0-0-0--0-0--|

D  :---------------------|------------------|----------------------|
A  :---------------------|------------------|----------------------|
F  :---------------------|------------------|----------------------|
C  :---------------------|------------------|----------------------|
G  :7-0-7-0-0-0-0-0-7-0-0|7-------6-6-6-6-7-|7-0-0-7-0-0-0-0--0-0--|
C  :--0---0-0-0-0*0---0-0|------------------|--0-0---0-0-0-0--0-0--|

F  :---------------------|------------------|----------------------|
C  :---------------------|------------------|----------------------|
G  :4---4-----------4----|4-------3-3-3-3-4-|4-----4---------------|
C  :--0---0-0-0-0*0---0-0|------------------|--0-0---0-0-0-0--0-0--|

============================================================================

D  :----------------|---------------------|------------------|
A  :----------------|---------------------|------------------|
F  :----------------|---------------------|------------------|
C  :----------------|---------------------|------------------|
G  :0--0----3--3--3-|0-0-0-0-0-0-0-0-0-0-0|0*------0*0-0-0*0*|
C  :1--1--0---------|0*0*0*0-0-0-0*0-0*0-0|0-------0-0-0-0-0-|

D  :----------------|---------------------|------------------|
A  :----------------|---------------------|------------------|
F  :----------------|---------------------|------------------|
C  :----------------|---------------------|------------------|
G  :0--0----6--6--6-|0-0-0-0-0-0-0-0-0-0-0|0*------0*0-0-0*0*|
C  :1--1--0---------|0*0*0*0-0-0-0*0-0*0-0|0-------0-0-0-0-0-|

F  :----------------|---------------------|------------------|
C  :----------------|---------------------|------------------|
G  :--------3--3--3-|---------------------|------------------|
C  :1--1--0---------|0*0x0*0-0-0-0*0-0*0-0|0*------0*0-0-0*0*|

============================================================================

D  :----------------------|----------------|---------------------|
A  :----------------------|----------------|---------------------|
F  :----------------------|----------------|---------------------|
C  :----------------------|----------------|---------------------|
G  :0-0-0-0-0-0-0-0--0-0--|0--0--0-0--0--0-|0-0-0-0-0-0-0-0-0-0-0|
C  :0*0-0-0*0-0-0-0*-0-0*-|0--0*-0*0--0*-0*|0*0*0*0-0-0-0*0-0*0-0|

D  :----------------------|----------------|---------------------|
A  :----------------------|----------------|---------------------|
F  :----------------------|----------------|---------------------|
C  :----------------------|----------------|---------------------|
G  :0-0-0-0-0-0-0-0--0-0--|0--0--0-0--0--0-|0-0-0-0-0-0-0-0-0-0-0|
C  :0*0-0-0*0-0-0-0*-0-0*-|0--0*-0*0--0*-0*|0*0*0*0-0-0-0*0-0*0-0|

F  :----------------------|----------------|---------------------|
C  :----------------------|----------------|---------------------|
G  :----------------------|----------------|---------------------|
C  :0*0-0-0*0-0-0-0*-0-0*-|0--0*-0*0--0*-0*|0*0x0*0-0-0-0*0-0*0-0|

============================================================================

D  :------------------|----------------------|----------------|
A  :------------------|----------------------|----------------|
F  :------------------|----------------------|----------------|
C  :------------------|----------------------|----------------|
G  :0*------0*0-0-0*0*|0-0-0-0-0-0-0-0--0-0--|0--0--0-0--0--0-|
C  :0-------0-0-0-0-0-|0*0-0-0*0-0-0-0*-0-0*-|0--0*-0*0--0*-0*|

D  :------------------|----------------------|----------------|
A  :------------------|----------------------|----------------|
F  :------------------|----------------------|----------------|
C  :------------------|----------------------|----------------|
G  :0*------0*0-0-0*0*|0-0-0-0-0-0-0-0--0-0--|0--0--0-0--0--0-|
C  :0-------0-0-0-0-0-|0*0-0-0*0-0-0-0*-0-0*-|0--0*-0*0--0*-0*|

F  :------------------|----------------------|----------------|
C  :------------------|----------------------|----------------|
G  :------------------|----------------------|----------------|
C  :0*------0*0-0-0*0*|0*0-0-0*0-0-0-0*-0-0*-|0--0*-0*0--0*-0*|

============================================================================

D  :---------------------|--------------------------|---------------------|
A  :---------10----------|----10-------10-h11-p10---|---------10----------|
F  :-----7---------------|7-----------------------7-|-----7---------------|
C  :-------8-------------|--8-----------------------|-------8-------------|
G  :0-10--------0-0-0-10-|-------0-0-0--------------|0-10--------0-0-0-10-|
C  :0-----------0-0-0----|-------0-0-0--------------|0-----------0-0-0----|

D  :---------------------|--------------------------|---------------------|
A  :---------10----------|----10-------10-h11-p10---|---------10----------|
F  :-----7---------------|7-----------------------7-|-----7---------------|
C  :-------8-------------|--8-----------------------|-------8-------------|
G  :0-10--------0-0-0-10-|-------0-0-0--------------|0-10--------0-0-0-10-|
C  :0-----------0-0-0----|-------0-0-0--------------|0-----------0-0-0----|

F  :-----7---14----------|7---14-------14-h15-p14-7-|-----7---14----------|
C  :-------8-------------|--8-----------------------|-------8-------------|
G  :--10--------------10-|--------------------------|--10--------------10-|
C  :0-----------0-0-0----|-------0-0-0--------------|0-----------0-0-0----|

============================================================================

D  :--------------------------|------------------|-----------------------|
A  :----10-------10-h11-p10---|--------5---------|----5-------5-h-6-p5---|
F  :7-----------------------7-|----2-------------|2--------------------2-|
C  :--8-----------------------|------3-----------|--3--------------------|
G  :-------0-0-0--------------|0-5-------0-0-0-5-|------0-0-0------------|
C  :-------0-0-0--------------|0---------0-0-0---|------0-0-0------------|

D  :--------------------------|------------------|-----------------------|
A  :----10-------10-h11-p10---|--------5---------|----5-------5-h-6-p5---|
F  :7-----------------------7-|----2-------------|2--------------------2-|
C  :--8-----------------------|------3-----------|--3--------------------|
G  :-------0-0-0--------------|0-5-------0-0-0-5-|------0-0-0------------|
C  :-------0-0-0--------------|0---------0-0-0---|------0-0-0------------|

F  :7---14-------14-h15-p14-7-|----2---9---------|2---9-------9-h10-p9-2-|
C  :--8-----------------------|------3-----------|--3--------------------|
G  :--------------------------|0-5-------0-0-0-5-|------0-0-0------------|
C  :-------0-0-0--------------|0---------0-0-0---|------0-0-0------------|

============================================================================

D  :------------------|-----------------------|---------------------|
A  :--------5---------|----5-------5-h-6-p5---|---------10----------|
F  :----2-------------|2--------------------2-|-----7---------------|
C  :------3-----------|--3--------------------|-------8-------------|
G  :0-5-------0-0-0-5-|------0-0-0------------|--10--------------10-|
C  :0---------0-0-0---|------0-0-0------------|---------------------|

D  :------------------|-----------------------|---------------------|
A  :--------5---------|----5-------5-h-6-p5---|---------------------|
F  :----2-------------|2--------------------2-|---------------------|
C  :------3-----------|--3--------------------|---------------------|
G  :0-5-------0-0-0-5-|------0-0-0------------|5-----------5-5-5----|
C  :0---------0-0-0---|------0-0-0------------|5*----------5-5-5*---|

F  :----2---9---------|2---9-------9-h10-p9-2-|---------------------|
C  :------3-----------|--3--------------------|---------------------|
G  :0-5-------0-0-0-5-|------0-0-0------------|---------------------|
C  :0---------0-0-0---|------0-0-0------------|5*----------5-5-5*---|

============================================================================

D  :-----------------------------|---------------------|
A  :----10-------10-h11-p10------|---------10----------|
F  :7-------------------------7--|-----7---------------|
C  :--8--------------------------|-------8-------------|
G  :-----------------------------|--10--------------10-|
C  :-----------------------------|---------------------|

D  :-----------------------------|---------------------|
A  :-----------------------------|---------------------|
F  :-----------------------------|---------------------|
C  :-----------------------------|---------------------|
G  :-------5-5-5--5---5---5-5-5-5|5-----------5-5-5----|
C  :-------5-5-5*-5---5---5-5-5-5|5*----------5-5-5*---|

F  :-----------------------------|---------------------|
C  :-----------------------------|---------------------|
G  :-----------------------------|---------------------|
C  :-------5-5-5*-5---5---5-5-5-5|5*----------5-5-5*---|

============================================================================

D  :-----------------------------|------------------|
A  :----10-------10-h11-p10------|--------5---------|
F  :7-------------------------7--|----2-------------|
C  :--8--------------------------|------3-----------|
G  :-----------------------------|--5-------------5-|
C  :-----------------------------|------------------|

D  :-----------------------------|------------------|
A  :-----------------------------|------------------|
F  :-----------------------------|------------------|
C  :-----------------------------|------------------|
G  :-------5-5-5--5---5---5-5-5-5|0---------0-0-0---|
C  :-------5-5-5*-5---5---5-5-5-5|0*--------0-0-0*--|

F  :-----------------------------|------------------|
C  :-----------------------------|------------------|
G  :-----------------------------|------------------|
C  :-------5-5-5*-5---5---5-5-5-5|0*--------0-0-0*--|

============================================================================

D  :-------------------------|------------------|-------------------------|
A  :----5-------5-h6-p5------|--------5---------|----5-------5-h6-p5------|
F  :2---------------------2--|----2-------------|2---------------------2--|
C  :--3----------------------|------3-----------|--3----------------------|
G  :-------------------------|--5-------------5-|-------------------------|
C  :-------------------------|------------------|-------------------------|

D  :-------------------------|------------------|-------------------------|
A  :-------------------------|------------------|-------------------------|
F  :-------------------------|------------------|-------------------------|
C  :-------------------------|------------------|-------------------------|
G  :------0-0-0-0--0--0-0-0-0|0---------0-0-0---|------0-0-0-0--0--0-0-0-0|
C  :------0-0-0*0--0--0-0-0-0|0*--------0-0-0*--|------0-0-0*0--0--0-0-0-0|

F  :-------------------------|------------------|-------------------------|
C  :-------------------------|------------------|-------------------------|
G  :-------------------------|------------------|-------------------------|
C  :------0-0-0*0--0--0-0-0-0|0*--------0-0-0*--|------0-0-0*0--0--0-0-0-0|

============================================================================

D  :---------------------------|-------------------------------|
A  :-------------10------------|------10-------10-h11-p10------|
F  :-------7-------------------|7---------------------------7--|
C  :---------8-----------------|----8--------------------------|
G  :----10------------------10-|-------------------------------|
C  :---------------------------|-------------------------------|

D  :---------------------------|-------------------------------|
A  :---------------------------|-------------------------------|
F  :---------------------------|-------------------------------|
C  :---------------------------|-------------------------------|
G  :5-5----5-5-5--5-5-5-5-5----|5-5-5--5-5-5-5--5-------5-5-5-5|
C  :5-5--*-5-5-5--5-5-5-5-5--*-|5-5-5*-5-5*5-5--5-------5-5-5-5|

F  :---------------------------|-------------------------------|
C  :---------------------------|-------------------------------|
G  :---------------------------|-------------------------------|
C  :5-5--*-5-5-5--5-5-5-5-5--*-|5-5-5*-5-5*5-5--5-------5-5-5-5|

============================================================================

D  :---------------------------|-------------------------------|
A  :-------------10------------|------10-------10-h11-p10------|
F  :-------7-------------------|7---------------------------7--|
C  :---------8-----------------|----8--------------------------|
G  :----10------------------10-|-------------------------------|
C  :---------------------------|-------------------------------|

D  :---------------------------|-------------------------------|
A  :---------------------------|-------------------------------|
F  :---------------------------|-------------------------------|
C  :---------------------------|-------------------------------|
G  :5-5----5-5-5--5-5-5-5-5----|5-5-5--5-5-5-5--5-------5-5-5-5|
C  :5-5--*-5-5-5--5-5-5-5-5--*-|5-5-5*-5-5*5-5--5-------5-5-5-5|

F  :---------------------------|-------------------------------|
C  :---------------------------|-------------------------------|
G  :---------------------------|-------------------------------|
C  :5-5--*-5-5-5--5-5-5-5-5--*-|5-5-5*-5-5*5-5--5-------5-5-5-5|

============================================================================

D  :------------------------|---------------------------|
A  :------------5-----------|------5-------5-h6-p5------|
F  :------2-----------------|2-----------------------2--|
C  :--------3---------------|----3----------------------|
G  :----5-----------------5-|---------------------------|
C  :------------------------|---------------------------|

D  :------------------------|---------------------------|
A  :------------------------|---------------------------|
F  :------------------------|---------------------------|
C  :------------------------|---------------------------|
G  :0-0---0-0-0-0-0-0-0-0---|0-0-0-0-0-0-0-0-----0-0-0-0|
C  :0-0-*-0-0-0-0-0-0-0-0-*-|0-0-0*0-0*0-0-0-----0-0-0-0|

F  :------------------------|---------------------------|
C  :------------------------|---------------------------|
G  :------------------------|---------------------------|
C  :0-0-*-0-0-0-0-0-0-0-0-*-|0-0-0*0-0*0-0-0-----0-0-0-0|

============================================================================

D  :------------------------|---------------------------|
A  :------------5-----------|------5-------5-h6-p5------|
F  :------2-----------------|2-----------------------2--|
C  :--------3---------------|----3----------------------|
G  :----5-----------------5-|---------------------------|
C  :------------------------|---------------------------|

D  :------------------------|---------------------------|
A  :------------------------|---------------------------|
F  :------------------------|---------------------------|
C  :------------------------|---------------------------|
G  :0-0---0-0-0-0-0-0-0-0---|0-0-0-0-0-0-0-0-----0-0-0-0|
C  :0-0-*-0-0-0-0-0-0-0-0-*-|0-0-0*0-0*0-0-0-----0-0-0-0|

F  :------------------------|---------------------------|
C  :------------------------|---------------------------|
G  :------------------------|---------------------------|
C  :0-0-*-0-0-0-0-0-0-0-0-*-|0-0-0*0-0*0-0-0-----0-0-0-0|

============================================================================

D  :---------------------|------------------|----------------------|
A  :---------------------|------------------|----------------------|
F  :---------------------|------------------|----------------------|
C  :---------------------|------------------|----------------------|
G  :0-0-4-0-0-0-0-0-4-0-0|4-------3-3-3-3-4-|4-0-0-4-0-0-0-0--0-0--|
C  :0-0---0-0-0-0*0---0-0|------------------|--0-0---0-0-0-0--0-0--|

D  :---------------------|------------------|----------------------|
A  :---------------------|------------------|----------------------|
F  :---------------------|------------------|----------------------|
C  :---------------------|------------------|----------------------|
G  :0-0-7-0-0-0-0-0-7-0-0|7-------6-6-6-6-7-|7-0-0-7-0-0-0-0--0-0--|
C  :0-0---0-0-0-0*0---0-0|------------------|--0-0---0-0-0-0--0-0--|

F  :---------------------|------------------|----------------------|
C  :---------------------|------------------|----------------------|
G  :----4-----------4----|4-------3-3-3-3-4-|4-----4---------------|
C  :0-0---0-0-0-0*0---0-0|------------------|--0-0---0-0-0-0--0-0--|

============================================================================

D  :----------------|---------------------|------------------|
A  :----------------|---------------------|------------------|
F  :----------------|---------------------|------------------|
C  :----------------|---------------------|------------------|
G  :0--0----3--3--3-|4-0-4-0-0-0-0-0-4-0-0|4-------3-3-3-3-4-|
C  :1--1--0---------|--0---0-0-0-0*0---0-0|------------------|

D  :----------------|---------------------|------------------|
A  :----------------|---------------------|------------------|
F  :----------------|---------------------|------------------|
C  :----------------|---------------------|------------------|
G  :0--0----6--6--6-|7-0-7-0-0-0-0-0-7-0-0|7-------6-6-6-6-7-|
C  :1--1--0---------|--0---0-0-0-0*0---0-0|------------------|

F  :----------------|---------------------|------------------|
C  :----------------|---------------------|------------------|
G  :--------3--3--3-|4---4-----------4----|4-------3-3-3-3-4-|
C  :1--1--0---------|--0---0-0-0-0*0---0-0|------------------|

============================================================================

D  :----------------------|----------------|---------------------|
A  :----------------------|----------------|---------------------|
F  :----------------------|----------------|---------------------|
C  :----------------------|----------------|---------------------|
G  :4-0-0-4-0-0-0-0--0-0--|0--0----3--3--3-|0-0-0-0-0-0-0-0-0-0-0|
C  :--0-0---0-0-0-0--0-0--|1--1--0---------|0*0*0*0-0-0-0*0-0*0-0|

D  :----------------------|----------------|---------------------|
A  :----------------------|----------------|---------------------|
F  :----------------------|----------------|---------------------|
C  :----------------------|----------------|---------------------|
G  :7-0-0-7-0-0-0-0--0-0--|0--0----6--6--6-|0-0-0-0-0-0-0-0-0-0-0|
C  :--0-0---0-0-0-0--0-0--|1--1--0---------|0*0*0*0-0-0-0*0-0*0-0|

F  :----------------------|----------------|---------------------|
C  :----------------------|----------------|---------------------|
G  :4-----4---------------|--------3--3--3-|---------------------|
C  :--0-0---0-0-0-0--0-0--|1--1--0---------|0*0x0*0-0-0-0*0-0*0-0|

============================================================================

D  :------------------|----------------------|----------------|
A  :------------------|----------------------|----------------|
F  :------------------|----------------------|----------------|
C  :------------------|----------------------|----------------|
G  :0*------0*0-0-0*0*|0-0-0-0-0-0-0-0--0-0--|0--0--0-0--0--0-|
C  :0-------0-0-0-0-0-|0*0-0-0*0-0-0-0*-0-0*-|0--0*-0*0--0*-0*|

D  :------------------|----------------------|----------------|
A  :------------------|----------------------|----------------|
F  :------------------|----------------------|----------------|
C  :------------------|----------------------|----------------|
G  :0*------0*0-0-0*0*|0-0-0-0-0-0-0-0--0-0--|0--0--0-0--0--0-|
C  :0-------0-0-0-0-0-|0*0-0-0*0-0-0-0*-0-0*-|0--0*-0*0--0*-0*|

F  :------------------|----------------------|----------------|
C  :------------------|----------------------|----------------|
G  :------------------|----------------------|----------------|
C  :0*------0*0-0-0*0*|0*0-0-0*0-0-0-0*-0-0*-|0--0*-0*0--0*-0*|

============================================================================

D  :---------------------|------------------|----------------------|
A  :---------------------|------------------|----------------------|
F  :---------------------|------------------|----------------------|
C  :---------------------|------------------|----------------------|
G  :0-0-0-0-0-0-0-0-0-0-0|0*------0*0-0-0*0*|0-0-0-0-0-0-0-0--0-0--|
C  :0*0*0*0-0-0-0*0-0*0-0|0-------0-0-0-0-0-|0*0-0-0*0-0-0-0*-0-0*-|

D  :---------------------|------------------|----------------------|
A  :---------------------|------------------|----------------------|
F  :---------------------|------------------|----------------------|
C  :---------------------|------------------|----------------------|
G  :0-0-0-0-0-0-0-0-0-0-0|0*------0*0-0-0*0*|0-0-0-0-0-0-0-0--0-0--|
C  :0*0*0*0-0-0-0*0-0*0-0|0-------0-0-0-0-0-|0*0-0-0*0-0-0-0*-0-0*-|

F  :---------------------|------------------|----------------------|
C  :---------------------|------------------|----------------------|
G  :---------------------|------------------|----------------------|
C  :0*0x0*0-0-0-0*0-0*0-0|0*------0*0-0-0*0*|0*0-0-0*0-0-0-0*-0-0*-|

============================================================================

D  :----------------|
A  :----------------|
F  :----------------|
C  :----------------|
G  :0--0--0-0--0--0-|
C  :0--0*-0*0--0*-0*|

D  :----------------|
A  :----------------|
F  :----------------|
C  :----------------|
G  :0--0--0-0--0--0-|
C  :0--0*-0*0--0*-0*|

F  :----------------|
C  :----------------|
G  :----------------|
C  :0--0*-0*0--0*-0*|

comments
We did not receive enough feedback on this tab! Please rate:
print report bad tab
1 2 3 4 5
I want to post or [tab]
guest
You may want to rate the tab now too:
select rating
Please do not post tabs as comments. Select "correction" instead!