Oops, an error
Loading. Please wait.

This Final Day - Standstill Tab

58 views 1 this week
no commentswrite comment
1 2 3 4 5
please rate
add to favorites launch autoscroll
font size
0
reset
Autoscroll
+/-
esc
set tempo
stop
Contributor
Difficulty
Tuning
intermediate
C G C F A D
WARNING: You are trying to view
                                    content from Ultimate-Guitar.com
                                    in an unauthorized application,
                                    which is prohibited.

                                    Please use an official Ultimate
                                    Guitar Tabs application for iPhone,
                                    iPad or Android to access legitimate
                                    chords, guitar, bass, and drum tabs
                                    from Ultimate-Guitar.com database.

                                    Type "ultimate guitar tabs" in Apple
                                    App Store's or Android Market's
                                    search to find the application.
Standstill Final.txt

D  :----------------|-----------------|------------------|
A  :----------------|-----------------|------------------|
F  :------------6---|7---10---9-------|--------------6---|
C  :--------7-------|-------------7---|----------7-------|
G  :----8-----------|-----------------|------8-----------|
C  :0-0---0---0---0-|--0----0---0---0-|0-0-0---0---0---0-|

D  :------------------|--------------------|--------------------|
A  :----10------------|--------------------|---------------10---|
F  :7--------10---9---|--------------------|--------------------|
C  :------------------|---------------11---|------7---11--------|
G  :------------------|------8---12--------|--------------------|
C  :--0----0----0---0-|8-8-8---8----8----8-|7-7-7---7----7----7-|

D  :----------------|-----------------|------------------|
A  :----------------|-----------------|------------------|
F  :------------6---|7---10---9-------|--------------6---|
C  :--------7-------|-------------7---|----------7-------|
G  :----8-----------|-----------------|------8-----------|
C  :0-0---0---0---0-|--0----0---0---0-|0-0-0---0---0---0-|

D  :------------------|--------------------|--------------------|
A  :----10------------|--------------------|---------------10---|
F  :7--------10---9---|--------------------|--------------------|
C  :------------------|---------------11---|------7---11--------|
G  :------------------|------8---12--------|--------------------|
C  :--0----0----0---0-|8-8-8---8----8----8-|7-7-7---7----7----7-|

D  :---------------------|-------------------|---------------------|
A  :--------10-11-10-----|---------10---11---|--------10-11-10-----|
F  :-----10----------7---|9---10-6----7----9-|-----10----------7---|
C  :7-11-----------------|--7----------------|7-11-----------------|
G  :---------------------|-------------------|---------------------|
C  :-------------------0-|-------------------|-------------------0-|

D  :----------------|---------------------|10---10---11---------|
A  :----------------|--------10-11-10-----|-------------11-10---|
F  :----------------|-----10----------7---|---7----7----------9-|
C  :----------------|7-11-----------------|---------------------|
G  :6-------5-8-7-4-|---------------------|---------------------|
C  :--8-7-0---------|-------------------0-|---------------------|

D  :---------------------|------------------|-----------------|
A  :--------10-11-10-----|------------------|-----------------|
F  :-----10----------7---|------------------|------------6-10-|
C  :7-11-----------------|------------------|----------7------|
G  :---------------------|0-0-0-0-----------|5-4---7-8--------|
C  :-------------------0-|0-0-0-0*----------|----8------------|

D  :-------------------|-----------------|-------------------|
A  :-----------11-10---|-----------------|-----------11-10---|
F  :9-6---9-10---------|------------6-10-|9-6---9-10---------|
C  :----7------------7-|----------7------|----7------------7-|
G  :-------------------|5-4---7-8--------|-------------------|
C  :-------------------|----8------------|-------------------|

D  :-----------------|-------------------|-----------------|
A  :-----------------|-----------11-10---|-----------------|
F  :------------6-10-|9-6---9-10---------|------------6-10-|
C  :----------7------|----7------------7-|----------7------|
G  :5-4---7-8--------|-------------------|5-4---7-8--------|
C  :----8------------|-------------------|----8------------|

D  :-------------------|-----------------|-------------------|
A  :-----------11-10---|-----------------|-----------11-10---|
F  :9-6---9-10---------|------------6-10-|9-6---9-10---------|
C  :----7------------7-|----------7------|----7------------7-|
G  :-------------------|5-4---7-8--------|-------------------|
C  :-------------------|----8------------|-------------------|

D  :-----------------|-------------------|-----------------|
A  :-----------------|-----------11-10---|-----------------|
F  :------------6-10-|9-6---9-10---------|------------6-10-|
C  :----------7------|----7------------7-|----------7------|
G  :5-4---7-8--------|-------------------|5-4---7-8--------|
C  :----8------------|-------------------|----8------------|

D  :-------------------|-----------------|-------------------|
A  :-----------11-10---|-----------------|-----------11-10---|
F  :9-6---9-10---------|------------6-10-|9-6---9-10---------|
C  :----7------------7-|----------7------|----7------------7-|
G  :-------------------|5-4---7-8--------|-------------------|
C  :-------------------|----8------------|-------------------|

D  :--------------------|--------------------|---------------------|
A  :--------------------|--------------------|---------------------|
F  :--------------------|--------------------|---------------------|
C  :0-0-0-0-0-----0-0-0-|0-0-0-0-0-----0-0-0-|----0-0--0-0-0-0-0---|
G  :0-0-0-0-0-----0-0-0-|0-0-0-0-0-----0-0-0-|----0-0--0-0-0-0-0---|
C  :0-0-0-0-0x----0x0x0x|0-0-0-0-0x----0x0x0x|----0-0x-0-0-0-0-0x--|

D  :-------------------------|--------------------|--------------------|
A  :-------------------------|--------------------|--------------------|
F  :-------------------------|--------------------|--------------------|
C  :0-0-0-0-0---0-0-0-0-0-0--|0-0-0-0-0-----0-0-0-|0-0-0-0-0-----0-0-0-|
G  :0-0-0-0-0---0-0-0-0-0-0--|0-0-0-0-0-----0-0-0-|0-0-0-0-0-----0-0-0-|
C  :0-0-0-0-0-*-0-0-0-0-0-0*-|0-0-0-0-0x----0x0x0x|0-0-0-0-0x----0x0x0x|

D  :---------------------|-------------------------|--------------------|
A  :---------------------|-------------------------|--------------------|
F  :---------------------|-------------------------|--------------------|
C  :----0-0--0-0-0-0-0---|0-0-0-0-0---0-0-0-0-0-0--|0-0-0-0-0-----0-0-0-|
G  :----0-0--0-0-0-0-0---|0-0-0-0-0---0-0-0-0-0-0--|0-0-0-0-0-----0-0-0-|
C  :----0-0x-0-0-0-0-0x--|0-0-0-0-0-*-0-0-0-0-0-0*-|0-0-0-0-0x----0x0x0x|

D  :------------------|------------------|-------------------|
A  :------------------|------------------|-------------------|
F  :------------------|------------------|-------------------|
C  :----------7-8-5---|----------3-2-----|----------7-8-5----|
G  :5-0-0-0-5-------0-|0-0-0-1-4-----5-4-|5-0-0-0-5-------0-0|
C  :--0-0-0---------0-|0-0-0-------------|--0-0-0---------0-0|

D  :------------------|------------------|------------------|
A  :-------------10---|------------------|------------------|
F  :------9-10-7----7-|------------------|------------------|
C  :----7-------------|----------7-8-5---|----------3-2-----|
G  :0-8---------------|5-0-0-0-5-------0-|0-0-0-1-4-----5-4-|
C  :0-----------------|--0-0-0---------0-|0-0-0-------------|

D  :-------------------|------------------|------------------|
A  :-------------------|-------------10---|------------------|
F  :-------------------|------9-10-7----7-|------------------|
C  :----------7-8-5----|----7-------------|----------7-8-5---|
G  :5-0-0-0-5-------0-0|0-8---------------|5-0-0-0-5-------5-|
C  :--0-0-0---------0-0|0-----------------|--0-0-0---------5-|

D  :------------------|-------------------|------------------|
A  :------------------|-------------------|-------------10---|
F  :------------------|-------------------|------9-10-7----7-|
C  :----------3-2-----|----------7-8-5----|----7-------------|
G  :5-5-5-1-4-----5-4-|5-0-0-0-5-------8-8|8-8---------------|
C  :5-5-5-------------|--0-0-0---------8-8|8-----------------|

D  :------------------|------------------|-------------------|
A  :------------------|------------------|-------------------|
F  :------------------|------------------|-------------------|
C  :----------7-8-5---|----------3-2-----|----------7-8-5----|
G  :5-0-0-0-5-------5-|5-5-5-1-4-----5-4-|5-------5----------|
C  :--0-0-0---------5-|5-5-5-------------|--0-0-0---------8-8|

D  :------------------|-----------------|------------------9h-|
A  :-------------10---|-----------------|11---10--------------|
F  :------9-10-7----7-|----9-10-7-----6-|---7----7-10-9-------|
C  :----7-------------|--7--------7-8---|---------------11----|
G  :--8---------------|8----------------|---------------------|
C  :8-----------------|-----------------|---------------------|

D  :10p-9------------------|-----------------|-----------------|
A  :------11---------------|-----------------|-----------------|
F  :---------9h-10p-9-7----|-----------------|----9-10-7-----6-|
C  :--------------------h7-|8p-7-------------|--7--------7-8---|
G  :-----------------------|-----8-7---------|8----------------|
C  :-----------------------|---------8-7-3-2-|-----------------|

D  :------------------9h-|10p-9------------------|-----------------|
A  :11---10--------------|------11---------------|-----------------|
F  :---7----7-10-9-------|---------9h-10p-9-7----|-----------------|
C  :---------------11----|--------------------h7-|8p-7-------------|
G  :---------------------|-----------------------|-----8-7---------|
C  :---------------------|-----------------------|---------8-7-3-2-|

D  :-------------------|-----------------|-------------------|
A  :-----------10------|-----------------|-----------10------|
F  :----9-10-7----7-10-|9-----------9-10-|----9-10-7----7-10-|
C  :--7----------------|--7-8-7---7------|--7----------------|
G  :8------------------|--------8--------|8------------------|
C  :-------------------|-----------------|-------------------|

D  :-----------------|-------------------|-----------------|
A  :-----------------|-----------10------|-----------------|
F  :9-----------9-10-|----9-10-7----7-10-|9-----------9-10-|
C  :--7-8-7---7------|--7----------------|--7-8-7---7------|
G  :--------8--------|8------------------|--------8--------|
C  :-----------------|-------------------|-----------------|

D  :-------------------|-----------------|----------------|----------------|
A  :-----------10------|-----------------|----------------|----------------|
F  :----9-10-7----7-10-|9-----------9-10-|----------------|----------------|
C  :--7----------------|--7-8-7---7------|----------------|----------------|
G  :8------------------|--------8--------|--1-4---7---5-4-|--1-4---7---5-4-|
C  :-------------------|-----------------|3-----0---0-----|3-----0---0-----|

D  :----------------|----------------|----------------|----------------|
A  :----------------|----------------|----------------|----------------|
F  :----------------|----------------|----------------|----------------|
C  :----------------|----------------|----------------|----------------|
G  :----1---7---5-4-|--1-4---7---5-4-|6-------5-8-7-4-|0-0-0-0-0-0-0-0-|
C  :0-3---0---0-----|3-----0---0-----|--8-7-0---------|0-0-0-0-0-0-0-0-|

D  :------------------|--------------------|------------------|
A  :------------------|--------------------|------------------|
F  :------------------|--------------------|------------------|
C  :------------------|--------------------|------------------|
G  :0-0-0-0-0-----7-8-|--0-0-0-0-0-----7-8-|5-0-0-0-0-----7-8-|
C  :0-0-0-0-0-3-7-----|-x0-0-0-0-0-3-7-----|--0-0-0-0-3-7-----|

D  :--------------------|-------------------|---------------------|
A  :--------------------|-------------------|---------------------|
F  :--------------------|--------------9-10-|----------------9-10-|
C  :--------------------|------------7------|--------------7------|
G  :--0-0-0-0-0-----7-8-|5-8-8-8-8-8--------|--8-8-8-8-8-8--------|
C  :-x0-0-0-0-0-3-7-----|--8-8-8-8----------|-x8-8-8-8-8----------|

D  :-------------------|---------------------|-------------------|
A  :-------------------|---------------------|10-----------------|
F  :7-------------9-10-|----------------9-10-|-------------------|
C  :------------7------|--------------7------|-------------------|
G  :--7-7-7-7-8--------|--7-7-7-7-7-8--------|---0-0-0-0-----7-8-|
C  :--7-7-7-7----------|-x7-7-7-7-7----------|---0-0-0-0-3-7-----|

D  :--------------------|------------------|--------------------|
A  :--------------------|------------------|--------------------|
F  :--------------------|------------------|--------------------|
C  :--------------------|------------------|--------------------|
G  :--0-0-0-0-0-----7-8-|5-0-0-0-0-----7-8-|--0-0-0-0-0-----7-8-|
C  :-x0-0-0-0-0-3-7-----|--0-0-0-0-3-7-----|-x0-0-0-0-0-3-7-----|

D  :-------------------|---------------------|-------------------|
A  :-------------------|---------------------|-------------------|
F  :--------------9-10-|----------------9-10-|7-------------9-10-|
C  :------------7------|--------------7------|------------7------|
G  :5-8-8-8-8-8--------|--8-8-8-8-8-8--------|--7-7-7-7-8--------|
C  :--8-8-8-8----------|-x8-8-8-8-8----------|--7-7-7-7----------|

D  :---------------------|-----------------|--------------------|
A  :---------------------|10---------------|--------------------|
F  :----------------9-10-|-----------------|--------------------|
C  :--------------7------|-----------------|12-0-12-0-12-0-15-0-|
G  :--7-7-7-7-7-8--------|-----------------|--------------------|
C  :-x7-7-7-7-7----------|-----------------|--------------------|

D  :--------------------|--------------------|--------------------|
A  :--------------------|--------------------|--------------------|
F  :----------14--------|12---15---14--------|--------------------|
C  :14-0-11-0----0-15-0-|---0----0----0-15-0-|14-0----------------|
G  :--------------------|--------------------|-----12-0-13-0-12-0-|
C  :--------------------|--------------------|--------------------|

D  :--------------------|--------------------|--------------------|
A  :--------------------|--------------------|--------------------|
F  :--------------------|----------14--------|12---15---14---19---|
C  :12-0-12-0-12-0-15-0-|14-0-11-0----0-15-0-|---0----0----0----0-|
G  :--------------------|--------------------|--------------------|
C  :--------------------|--------------------|--------------------|

D  :--------------------|--------------------|--------------------|
A  :--------------------|--------------------|--------------------|
F  :18---15---14--------|--------------------|----------14--------|
C  :---0----0----0-14-0-|12-0-12-0-12-0-15-0-|14-0-11-0----0-15-0-|
G  :--------------------|--------------------|--------------------|
C  :--------------------|--------------------|--------------------|

D  :--------------------|--------------------|--------------------|
A  :--------------------|--------------------|--------------------|
F  :12---15---14--------|--------------------|--------------------|
C  :---0----0----0-15-0-|14-0----------------|12-0-12-0-12-0-15-0-|
G  :--------------------|-----12-0-13-0-12-0-|--------------------|
C  :--------------------|--------------------|--------------------|

D  :--------------------|--------------------|--------------------|
A  :--------------------|--------------------|--------------------|
F  :----------14--------|12---15---14---19---|18---15---14--------|
C  :14-0-11-0----0-15-0-|---0----0----0----0-|---0----0----0-14-0-|
G  :--------------------|--------------------|--------------------|
C  :--------------------|--------------------|--------------------|

D  :------------------------|---------------------|-------------------|
A  :15-14-------------------|---------------------|-----------11-10---|
F  :------15-14-12----------|---------------------|------10-9---------|
C  :---------------15-14-12-|11-------------------|--7-8--------------|
G  :------------------------|---13-12-------------|0------------------|
C  :------------------------|---------15-14-------|-----------------0-|

D  :-------------------|-------------------|-------------------|
A  :-----------11-10---|-----------11-10---|-----------11-10---|
F  :------10-9---------|------10-9---------|------10-9---------|
C  :--7-8--------------|--7-8--------------|--7-8--------------|
G  :0------------------|0------------------|0------------------|
C  :-----------------0-|-----------------0-|-----------------0-|

D  :10-----10-----------|------------------------|10-----10-----------|
A  :--------------11----|------10-h11-p10--------|--------------11----|
F  :---7------7---------|-----------------9-10-6-|---7------7---------|
C  :--------------------|------------------------|--------------------|
G  :-----0------0----0-0|0-0-0-------------------|-----0------0----0-0|
C  :-----0------0----0-0|0-0-0-------------------|-----0------0----0-0|

D  :------------------------|10-----10-----------|------------------------|
A  :------10-h11-p10--------|--------------11----|------10-h11-p10--------|
F  :-----------------9-10-6-|---7------7---------|-----------------9-10-6-|
C  :------------------------|--------------------|------------------------|
G  :0-0-0-------------------|-----0------0----0-0|0-0-0-------------------|
C  :0-0-0-------------------|-----0------0----0-0|0-0-0-------------------|

D  :10-----10----------|---------------------|10-----10-----------|
A  :--------------11---|--------10-11-10-----|--------------11----|
F  :---7------7--------|-----10----------7---|---7------7---------|
C  :-------------------|7-11-----------------|--------------------|
G  :-----0------0----0-|---------------------|-----0------0----0-0|
C  :-----0------0----0-|-------------------0-|-----0------0----0-0|

D  :------------------------|10-----10-----------|------------------------|
A  :------10-h11-p10--------|--------------11----|------10-h11-p10--------|
F  :-----------------9-10-6-|---7------7---------|-----------------9-10-6-|
C  :------------------------|--------------------|------------------------|
G  :0-0-0-------------------|-----0------0----0-0|0-0-0-------------------|
C  :0-0-0-------------------|-----0------0----0-0|0-0-0-------------------|

D  :10-----10-----------|------------------------|10-----10----------|
A  :--------------11----|------10-h11-p10--------|--------------11---|
F  :---7------7---------|-----------------9-10-6-|---7------7--------|
C  :--------------------|------------------------|-------------------|
G  :-----0------0----0-0|0-0-0-------------------|-----0------0----0-|
C  :-----0------0----0-0|0-0-0-------------------|-----0------0----0-|

D  :---------------------|--------------------|----------------------|
A  :--------10-11-10-----|--------------------|----------------------|
F  :-----10----------7---|--------------------|----------------------|
C  :7-11-----------------|--------------------|----------------------|
G  :---------------------|0-0-0-0-0---0---0-0-|0-0-0---0-0-0-0-0-----|
C  :-------------------0-|0-0-0-0-0*--0*--0*0*|0-0-0*--0-0-0-0-0*----|

D  :------------------------|--------------------|--------------------|
A  :------------------------|--------------------|--------------------|
F  :------------------------|--------------------|--------------------|
C  :------------------------|--------------------|--------------------|
G  :0-0-0-0-0-0-0-0-0-0-0-0-|0-0-0-0-0---0---0-0-|0-0-0-0-0---0---0-0-|
C  :0-0-0-0-0-0-0-0-0-0-0-0-|0-0-0-0-0*--0*--0*0*|0-0-0-0-0*--0*--0*0*|

D  :----------------------|------------------------|--------------------|
A  :----------------------|------------------------|--------------------|
F  :----------------------|------------------------|--------------------|
C  :----------------------|------------------------|--------------------|
G  :0-0-0---0-0-0-0-0-----|0-0-0-0-0-0-0-0-0-0-0-0-|0-0-0-0-0---0---0-0-|
C  :0-0-0*--0-0-0-0-0*----|0-0-0-0-0-0-0-0-0-0-0-0-|0-0-0-0-0*--0*--0*0*|

D  :--------------------|----------------------|------------------------|
A  :--------------------|----------------------|------------------------|
F  :--------------------|----------------------|------------------------|
C  :--------------------|----------------------|------------------------|
G  :0-0-0-0-0---0---0-0-|0-0-0---0-0-0-0-0-----|0-0-0-0-0-0-0-0-0-0-0-0-|
C  :0-0-0-0-0*--0*--0*0*|0-0-0*--0-0-0-0-0*----|0-0-0-0-0-0-0-0-0-0-0-0-|

D  :--------------------|--------------------|----------------------|
A  :--------------------|--------------------|----------------------|
F  :--------------------|--------------------|----------------------|
C  :--------------------|--------------------|----------------------|
G  :0-0-0-0-0---0---0-0-|0-0-0-0-0---0---0-0-|0-0-0---0-0-0-0-0-----|
C  :0-0-0-0-0*--0*--0*0*|0-0-0-0-0*--0*--0*0*|0-0-0*--0-0-0-0-0*----|

D  :------------------------|--------------------|
A  :------------------------|--------------------|
F  :------------------------|--------------------|
C  :------------------------|--------------------|
G  :0-0-0-0-0-0-0-0-0-0-0-0-|0-0-0-0-0---0---0-0-|
C  :0-0-0-0-0-0-0-0-0-0-0-0-|0-0-0-0-0*--0*--0*0*|
comments
We did not receive enough feedback on this tab! Please rate:
1 2 3 4 5
I want to post or [tab]
guest
You may want to rate the tab now too:
select rating
Please do not post tabs as comments. Select "correction" instead!