Oops, an error
Loading. Please wait.

Tiltid - Step Outside Tab

34 views 1 this week
no commentswrite comment
1 2 3 4 5
please rate
add to favorites launch autoscroll
font size
0
reset
Autoscroll
+/-
esc
set tempo
stop
Contributor
WARNING: You are trying to view
                                    content from Ultimate-Guitar.com
                                    in an unauthorized application,
                                    which is prohibited.

                                    Please use an official Ultimate
                                    Guitar Tabs application for iPhone,
                                    iPad or Android to access legitimate
                                    chords, guitar, bass, and drum tabs
                                    from Ultimate-Guitar.com database.

                                    Type "ultimate guitar tabs" in Apple
                                    App Store's or Android Market's
                                    search to find the application.
TiLTiD - Step Outside

I do not know how many people are going to see this, but this is by a local band in my area
that broke up several years back. I'm posting this for my friends to learn at their houses
so we can cover it. Feel free to learn it but credit belongs to all the members of TiLTiD.

Intro

e------------------------------------|
Bo----------------------------------o|
G------------------------------------|
D--0-0-7p5-0-8p7-0-10p8-0-7p5-0-8p7--|
Ao-0-0-7p5-0-8p7-0-10p8-0-7p5-0-8p7-o| X8
D--0-0-7p5-0-8p7-0-10p8-0-7p5-0-8p7--|

e------------------------------------------------|
Bo-----------------------------------------------|
G-----------------------------------10-10\5-5-55-|
D--0-0-7p5-0-8p7-0-10p8-0-7p5-0-8p7-10-10\5-5-55-|
Ao-0-0-7p5-0-8p7-0-10p8-0-7p5-0-8p7-8--8-\3-3-33-|
D--0-0-7p5-0-8p7-0-10p8-0-7p5-0-8p7--------------|

e-------------------------------------------------------|
B------------------------------------------------------o|
G----------------------------------10-10X10/12-12-1212--|
D-0-0-7p5-0-8p7-0-10p8-0-7p5-0-8p7-10-10X10/12-12-1212--|
A-0-0-7p5-0-8p7-0-10p8-0-7p5-0-8p7-8--8-X8-/10-10-1010-o| X2
D-0-0-7p5-0-8p7-0-10p8-0-7p5-0-8p7----------------------|

Pre-Verse

e----------------------------------------------|
Bo---------------------------------------------|
G----------------------------------------------|
D--------0~--------------------0~--------------|
Ao-0-0-0-0~----8-7h8-7---0-0-0-0~----8-7h8-7---|
D--0-0-0-0~--10-------10-0-0-0-0~--10-------10-|
pm|=====|             pm|=====|

e-----------------------------------------------|
B----------------------------------------------o|
G-----------------------------------------------|
D--------8~------------------8~-----------------|
A--8-8-8-8~----7-8p7---8-8-8-8~--10p8-7--8p7---o| X2
D--8-8-8-8~--10-----10-8-8-8-8~-------------10--|
pm|=====|           pm|=====|

e-----------------------------------------------------|
B-----------------------------------------------------|
G-----------------------------------------------------|
D-----------------------------------------------------|
A--0-0-8-7h8p7-0-0-8-7h8p7-0-0-8-7h8p7-8/10-8p7-8-7---|
D--0-0---------0-0---------0-0---------------------10-|
pm|===|     pm|===|     pm|===|

e-------------------------------------------|
B-------------------------------------------|
G-------------------------------------------|
D-8-8-8--8-8-8~-88--8-8--888--8-8-8-8/10-10-|
A-8-8-8--8-8-8~-88--8-8--888--8-8-8-8/10-10-|
D-8-8-8--8-8-8~-88--8-8--888--8-8-8-8/10-10-|
pm   |=|  |=|  |==|     |===|  |=|

Verse

e-----------------------------------------------------|
Bo----------------------------------------------------|
G-----------------------------------------------------|
D-----------------------------------------------------|
Ao-0-0-8-7h8p7-0-0-8-7h8p7-0-0-8-7h8p7-8/10-8p7-8-7---|
D--0-0---------0-0---------0-0---------------------10-|
pm|===|     pm|===|     pm|===|

e--------------------------------------------|
B-------------------------------------------o|
G--------------------------------------------|
D-8-8-8--8-8-8~-88--8-8--888--8-8-8-8/10-10--|
A-8-8-8--8-8-8~-88--8-8--888--8-8-8-8/10-10-o| X3
D-8-8-8--8-8-8~-88--8-8--888--8-8-8-8/10-10--|
pm   |=|  |=|  |==|     |===|  |=|

Pre-Chorus

e------------------------------|
B------------------------------|
G---5-5/10-9-9----7-7/12-10-10-|
D-0-x-x-x--x-x--0--------------|
A-0-3-3/8--7-7--0-5-5/10-8--8--|
D-0~~-----------0~~------------|

  (clean)
e----------------------------------------|
B----------------------------------------|
G----------------------------------------|
D---8---8--8---8---8---8--8/10--10-10-10-|
A--8---8--8---8---8---8---8/10--10-10-10-|
D-8---8--8---8---8---8--8-8/10--10-10-10-|

Chorus

  (distortion)
e------------------------------------------------|
Bo-----------------------------------------------|
G-----------------------------------10-10\5-5-55-|
D--0-0-7p5-0-8p7-0-10p8-0-7p5-0-8p7-10-10\5-5-55-|
Ao-0-0-7p5-0-8p7-0-10p8-0-7p5-0-8p7-8--8-\3-3-33-|
D--0-0-7p5-0-8p7-0-10p8-0-7p5-0-8p7--------------|

e-------------------------------------------------------|
B------------------------------------------------------o|
G----------------------------------10-10X10/12-12-1212--|
D-0-0-7p5-0-8p7-0-10p8-0-7p5-0-8p7-10-10X10/12-12-1212--|
A-0-0-7p5-0-8p7-0-10p8-0-7p5-0-8p7-8--8-X8-/10-10-1010-o| X2
D-0-0-7p5-0-8p7-0-10p8-0-7p5-0-8p7----------------------|

Pre-Verse

e----------------------------------------------|
B----------------------------------------------|
Go---------------------------------------------|
D--------0~--------------------0~--------------|
Ao-0-0-0-0~----8-7h8-7---0-0-0-0~----8-7h8-7---|
D--0-0-0-0~--10-------10-0-0-0-0~--10-------10-|
pm|=====|             pm|=====|

e-----------------------------------------------|
B----------------------------------------------o|
G-----------------------------------------------|
D--------8~------------------8~-----------------|
A--8-8-8-8~----7-8p7---8-8-8-8~--10p8-7--8p7---o| X2
D--8-8-8-8~--10-----10-8-8-8-8~-------------10--|
pm|=====|           pm|=====|

e-----------------------------------------------------|
B-----------------------------------------------------|
G-----------------------------------------------------|
D-----------------------------------------------------|
A--0-0-8-7h8p7-0-0-8-7h8p7-0-0-8-7h8p7-8/10-8p7-8-7---|
D--0-0---------0-0---------0-0---------------------10-|
pm|===|     pm|===|     pm|===|

e-------------------------------------------|
B-------------------------------------------|
G-------------------------------------------|
D-8-8-8--8-8-8~-88--8-8--888--8-8-8-8/10-10-|
A-8-8-8--8-8-8~-88--8-8--888--8-8-8-8/10-10-|
D-8-8-8--8-8-8~-88--8-8--888--8-8-8-8/10-10-|
pm   |=|  |=|  |==|     |===|  |=|

Verse

e-----------------------------------------------------|
Bo----------------------------------------------------|
G-----------------------------------------------------|
D-----------------------------------------------------|
Ao-0-0-8-7h8p7-0-0-8-7h8p7-0-0-8-7h8p7-8/10-8p7-8-7---|
D--0-0---------0-0---------0-0---------------------10-|
pm|===|     pm|===|     pm|===|

e--------------------------------------------|
B-------------------------------------------o|
G--------------------------------------------|
D-8-8-8--8-8-8~-88--8-8--888--8-8-8-8/10-10--|
A-8-8-8--8-8-8~-88--8-8--888--8-8-8-8/10-10-o| X3
D-8-8-8--8-8-8~-88--8-8--888--8-8-8-8/10-10--|
pm   |=|  |=|  |==|     |===|  |=|

Pre-Chorus

e------------------------------|
B------------------------------|
G---5-5/10-9-9----7-7/12-10-10-|
D-0-x-x-x--x-x--0--------------|
A-0-3-3/8--7-7--0-5-5/10-8--8--|
D-0~~-----------0~~------------|

  (clean)
e----------------------------------------|
B----------------------------------------|
G----------------------------------------|
D---8---8--8---8---8---8--8/10--10-10-10-|
A--8---8--8---8---8---8---8/10--10-10-10-|
D-8---8--8---8---8---8--8-8/10--10-10-10-|

Chorus

  (distortion)
e------------------------------------------------|
Bo-----------------------------------------------|
G-----------------------------------10-10\5-5-55-|
D--0-0-7p5-0-8p7-0-10p8-0-7p5-0-8p7-10-10\5-5-55-|
Ao-0-0-7p5-0-8p7-0-10p8-0-7p5-0-8p7-8--8-\3-3-33-|
D--0-0-7p5-0-8p7-0-10p8-0-7p5-0-8p7--------------|

e-------------------------------------------------------|
B------------------------------------------------------o|
G----------------------------------10-10X10/12-12-1212--|
D-0-0-7p5-0-8p7-0-10p8-0-7p5-0-8p7-10-10X10/12-12-1212--|
A-0-0-7p5-0-8p7-0-10p8-0-7p5-0-8p7-8--8-X8-/10-10-1010-o| X2
D-0-0-7p5-0-8p7-0-10p8-0-7p5-0-8p7----------------------|

Bridge, pt. 1

  (clean)
e--------------------------------------------------------|
Bo------------------------------------------------------o|
G--------------------------------------------------------|
D------10-8---------12-10--------15-14--------15-14------|
Ao---8--------8---10-------10--12-------12--12-------12-o| X3
D--8--------8---10-------10--12-------12--12-------12----|

e-------------------------------------------|
B-------------------------------------------|
G-------------------------------------------|
D---10-10---10-10---10---12-12--12-12-12-12-|
A---8--8----8--8----8----10-10--10-10-10-10-|
D-8-------8-------8----10-----10------10-10-|

Bridge, pt. 2

  (distortion)
e-----------------------------------------------------|
Bo---------------------------------------------------o|
G-------------------------3~-------------------5------|
D-------------------------3~-------------------5--3~--|
Ao------------------------1~-------------------3--3~-o| X3
D--0--000-0-0--0---000-0-0--0--000-0-0--0---000-0-3~--|
pm|=======================||===================|=|

e--------------------------------------------|
B--------------------------------------------|
G----3--3-3-3-3-3-3-3-3---5--5-5-5-5-5-5-5-5-|
D----3--3-3-3-3-3-3-3-3---5--5-5-5-5-5-5-5-5-|
A----1--1-1-1-1-1-1-1-1---3--3-3-3-3-3-3-3-3-|
D--00-------------------00-------------------|
pm|==| |=| |=| |=| |=| |==| |=| |=| |=| |=|

e-----------------------------------------------------|
Bo---------------------------------------------------o|
G-------------------------3~-------------------5------|
D-------------------------3~-------------------5--3~--|
Ao------------------------1~-------------------3--3~-o| X2
D--0--000-0-0--0---000-0-0--0--000-0-0--0---000-0-3~--|
pm|=======================||===================|=|

e--------------------------------------------|
Bo-------------------------------------------|
G----3--3-3-3-3-3-3-3-3---5--5-5-5-5-5-5-5-5-|
D----3--3-3-3-3-3-3-3-3---5--5-5-5-5-5-5-5-5-|
Ao---1--1-1-1-1-1-1-1-1---3--3-3-3-3-3-3-3-3-|
D--00-------------------00-------------------|
pm|==| |=| |=| |=| |=| |==| |=| |=| |=| |=|

e---------------------------------------------|
B--------------------------------------------o|
G----7--7-7-7-7-7-7-7-7---7--7-7-7-7-7-7-7-7--|
D----7--7-7-7-7-7-7-7-7---7--7-7-7-7-7-7-7-7--|
A----5--5-5-5-5-5-5-5-5---5--5-5-5-5-5-5-5-5-o| X2
D--00-------------------00--------------------|
pm|==| |=| |=| |=| |=| |==| |=| |=| |=| |=|

Bridge, pt. 3

e------------------------------------------------------------|
Bo----------------------------------------------------------o|
G--3-3--3/5-3--5-5--5/7-5--7-7--7/10-10-9--10-9-10/12-12-10--|
D--3-3--3/5-3--5-5--5/7-5--7-7--7/10-10-9--10-9-10/12-12-10--|
Ao-1-1--1/3-1--3-3--3/5-3--5-5--5/8--8--7--8--7-8-/10-10-8--o| X2
D------------------------------------------------------------|

e----------------------------|
B----------------------------|
G-3-3--3/5-5--5-5--5/7-7-----|
D-3-3--3/5-5--5-5--5/7-7-0~~-|
A-1-1--1/3-3--3-3--3/5-5-0~~-|
D------------------------0~~-|

e------------------------------------------|
B------------------------------------------|
G-3-3--3-3-3--5-5--5-5-5-------------------|
D-3-3--3-3-3--5-5--5-5-5-0-0--0-0-0-0--0-0-|
A-1-1--1-1-1--3-3--3-3-3-0-0--0-0-0-0--0-0-|
D------------------------0-0--0-0-0-0--0-0-|

e----------------------------------------------------|
Bo---------------------------------------------------|
G--3-3--3-3-3---5-5--5-5-5------10-10-10-10-10-10-9\-|
D--3-3--3-3-3---5-5--5-5-5-0-0-----------------------|
Ao-1-1--1-1-1---3-3--3-3-3-0-0-----------------------|
D--------------------------0-0-----------------------|

e----------------------------|
B---------------------------o|
G-----12-12-12-12-12-12-10\--|
D-0-0------------------------|
A-0-0-----------------------o| X2
D-0-0------------------------|

e------------------------------------------|
B------------------------------------------|
G-3-3--3-3-3--5-5--5-5-5-------------------|
D-3-3--3-3-3--5-5--5-5-5-0~0~~0~0~0~0~~0~0~|
A-1-1--1-1-1--3-3--3-3-3-0~0~~0~0~0~0~~0~0~|
D------------------------0~0~~0~0~0~0~~0~0~|

e-----------------------------|
B-----------------------------|
G-3-3--3-3-3--5-5--5-5-5------|
D-3-3--3-3-3--5-5--5-5-5-0~~~-|
A-1-1--1-1-1--3-3--3-3-3-0~~~-|
D------------------------0~~~-|

Outro

e--------------------------------------------------|
B--------------------------------------------------|
G-------------------------------------10-10\5-5-55-|
D-10\0-0-7p5-0-8p7-0-10p8-0-7p5-0-8p7-10-10\5-5-55-|
A-10\0-0-7p5-0-8p7-0-10p8-0-7p5-0-8p7-8--8-\3-3-33-|
D-10\0-0-7p5-0-8p7-0-10p8-0-7p5-0-8p7--------------|

e------------------------------------------------------|
B------------------------------------------------------|
G----------------------------------10-10X10/12-12-1212-|
D-0-0-7p5-0-8p7-0-10p8-0-7p5-0-8p7-10-10X10/12-12-1212-|
A-0-0-7p5-0-8p7-0-10p8-0-7p5-0-8p7-8--8-X8-/10-10-1010-|
D-0-0-7p5-0-8p7-0-10p8-0-7p5-0-8p7---------------------|

e-----------------------------------------------|
B-----------------------------------------------|
G----------------------------------10-10\5-5-55-|
D-0-0-7p5-0-8p7-0-10p8-0-7p5-0-8p7-10-10\5-5-55-|
A-0-0-7p5-0-8p7-0-10p8-0-7p5-0-8p7-8--8-\3-3-33-|
D-0-0-7p5-0-8p7-0-10p8-0-7p5-0-8p7--------------|

e------------------------------------------------------|
B------------------------------------------------------|
G----------------------------------10-10X10/12-12-1212-|
D-0-0-7p5-0-8p7-0-10p8-0-7p5-0-8p7-10-10X10/12-12-1212-|
A-0-0-7p5-0-8p7-0-10p8-0-7p5-0-8p7-8--8-X8-/10-10-1010-|
D-0-0-7p5-0-8p7-0-10p8-0-7p5-0-8p7---------------------|

e------------------------------------|
Bo----------------------------------o|
G------------------------------------|
D--0-0-7p5-0-8p7-0-10p8-0-7p5-0-8p7--|
Ao-0-0-7p5-0-8p7-0-10p8-0-7p5-0-8p7-o| X7
D--0-0-7p5-0-8p7-0-10p8-0-7p5-0-8p7--|
comments
We did not receive enough feedback on this tab! Please rate:
1 2 3 4 5
I want to post or [tab]
guest
You may want to rate the tab now too:
select rating
Please do not post tabs as comments. Select "correction" instead!