Oops, an error
Loading. Please wait.

Tylar Akana - Rein-state Bass Tab

44 views 1 this week
no commentswrite comment
1 2 3 4 5
please rate
add to favorites launch autoscroll
font size
0
reset
Autoscroll
+/-
esc
set tempo
stop
Contributor
Difficulty
novice
WARNING: You are trying to view
                                    content from Ultimate-Guitar.com
                                    in an unauthorized application,
                                    which is prohibited.

                                    Please use an official Ultimate
                                    Guitar Tabs application for iPhone,
                                    iPad or Android to access legitimate
                                    chords, guitar, bass, and drum tabs
                                    from Ultimate-Guitar.com database.

                                    Type "ultimate guitar tabs" in Apple
                                    App Store's or Android Market's
                                    search to find the application.
==================================================================================

Bass Tabs
==================================================================================

  0:00
G ------------------------------------------------------------------------------------------------|
D ------------------------------------------------------------------------------------------------|
A ------------------------------------------------------------------------------------------------|
E 0-----------------------------------------------------------------------------------------------|

  0:02
G ------------------------------------------------------------------------------------------------|
D ------------------------------------------------------------------------------------------------|
A ------------------------------------------------17-16-15-14-13-12-11-10-8--7--6--5--4--3--2--1--|
E 1--2--3--4--5--6--7--8--9--10-11-12-12-13-14-15-------------------------------------------------|

  0:05
G ------------------------------------------------------------------------------------------------|
D ------------------------------------------------------------------------------------------------|
A ------------------------------------------------------------------------------------------------|
E 0-----0--0--0--0--0-----0--0--0--0--0-----0--0--0-----0--0--0--0--0-----0--0--0--0--0-----0--0--|

  0:08
G ------------------------------------------------------------------------------------------------|
D ------------------------------------------------------------------------------------------------|
A ------------------------------------------------------------------------------------------------|
E 1-----1--1--1--1--1-----1--1--1--1--1-----1--1--1-----1--1--1--1--1-----1--1--1--1--1-----1--1--|

  0:11
G ------------------------------------------------------------------------------------------------|
D ------------------------------------------------------------------------------------------------|
A 6-----6--6--6--6--6--6--3-----3-----------3-----------------------------------------------------|
E ---------------------------------6-----6--------3-----3--3--3--3--3--3--3--3--3--3--3--3--3--3--|

  0:14
G ------------------------------------------------------------------------------------------------|
D ------------------------------------------------------------------------------------------------|
A ------------------------------------------------------------------------------------------------|
E 0-----0--0--0--0--0-----0--0--0--0--0-----0--0--1-----1--1--1--1--1-----1--1--1--1--1-----1--1--|

  0:16
G ------------------------------------------------------------------------------------------------|
D ------------------------------------------------------------------------------------------------|
A 6-----6--6--6--6--6--6--3-----3-----------3-----------------------------------------------------|
E ---------------------------------6-----6--------3-----3--3--3--3--3--3--3--3--3--3--3--3--3--3--|

  0:19
G ------------------------------------------------------------------------------------------------|
D ------------------------------------------------------------------------------------------------|
A ------------------------------------------------------------------------------------------------|
E 0-----0--0--0--0--0-----0--0--0--0--0-----0--0--1-----1--1--1--1--1-----1--1--1--1--1-----1--1--|

  0:22
G ------------------------------------------------------------------------------------------------|
D ------------------------------------------------------------------------------------------------|
A 6-----6--6--6--6--6--6--3-----3-----------3-----------------------------------------------------|
E ---------------------------------6-----6--------3-----3--3--3--3--3--3--3--3--3--3--3--3--3--3--|

  0:25
G ------------------------------------------------------------------------------------------------|
D ------------------------------------------------------------------------------------------------|
A ------------------------------------------------------------------------------------------------|
E 0-----0--0--0--0--0-----0--0--0--0--0-----0--0--1-----1--1--1--1--1-----1--1--1--1--1-----1--1--|

  0:28
G ------------------------------------------------------------------------------------------------|
D ------------------------------------------------------------------------------------------------|
A 6-----6-----6-----6-----------6-----------6-----3-----3-----3-----3-----------3-----------3-----|
E ------------------------------------------------------------------------------------------------|

  0:31
G ------------------------------------------------------------------------------------------------|
D ------------------------------------------------------------------------------------------------|
A ------------------------------------------------------------------------------------------------|
E 3-----3-----3-----3-----------3-----------3-----6-----6-----6-----6-----------6-----------6-----|

  0:33
G ------------------------------------------------------------------------------------------------|
D ------------------------------------------------------------------------------------------------|
A 6-----6-----6-----6-----------6-----------6-----3-----3-----3-----3-----------3-----------3-----|
E ------------------------------------------------------------------------------------------------|

  0:36
G ------------------------------------------------------------------------------------------------|
D ------------------------------------------------------------------------------------------------|
A ------------------------------------------------------------------------------------------------|
E 3-----3-----3-----3-----------3-----------3-----6-----6-----6-----6-----------6-----------6-----|

  0:39
G ------------------------------------------------------------------------------------------------|
D ------------------------------------------------------------------------------------------------|
A 6-----6-----6-----6-----------6-----------6-----3-----3-----3-----3-----------3-----------3-----|
E ------------------------------------------------------------------------------------------------|

  0:42
G ------------------------------------------------------------------------------------------------|
D ------------------------------------------------------------------------------------------------|
A ------------------------------------------------------------------------------------------------|
E 3-----3-----3-----3-----------3-----------3-----6-----6-----6-----6-----------6-----------6-----|

  0:45
G ------------------------------------------------------------------------------------------------|
D ------------------------------------------------------------------------------------------------|
A 6-----6-----6-----6-----------6-----------6-----3-----3-----3-----3-----------3-----------3-----|
E ------------------------------------------------------------------------------------------------|

  0:47
G ------------------------------------------------------------------------------------------------|
D ------------------------------------------------------------------------------------------------|
A ------------------------------------------------------------------------------------------------|
E 3-----3-----3-----3-----------3-----------3-----6-----6-----6-----6-----------6-----------6-----|

  0:50
G ------------------------------------------------------------------------------------------------|
D ------------------------------------------------------------------------------------------------|
A 6-----6-----6-----6-----------6-----------6-----3-----3-----3-----3-----------3-----------3-----|
E ------------------------------------------------------------------------------------------------|

  0:53
G ------------------------------------------------------------------------------------------------|
D ------------------------------------------------------------------------------------------------|
A ------------------------------------------------------------------------------------------------|
E 3-----3-----3-----3-----------3-----------3-----6-----6-----6-----6-----------6-----------6-----|

  0:56
G ------------------------------------------------------------------------------------------------|
D ------------------------------------------------------------------------------------------------|
A 6-----6-----6-----6-----------6-----------6-----3-----3-----3-----3-----------3-----------3-----|
E ------------------------------------------------------------------------------------------------|

  0:59
G ------------------------------------------------------------------------------------------------|
D ------------------------------------------------------------------------------------------------|
A ------------------------------------------------------------------------------------------------|
E 3-----3-----3-----3-----------3-----------3-----6-----6-----6-----6-----------6-----------6-----|

  1:02
G ------------------------------------------------------------------------------------------------|
D ------------------------------------------------------------------------------------------------|
A 6-----6-----6-----6-----------6-----------6-----3-----3-----3-----3-----------3-----------3-----|
E ------------------------------------------------------------------------------------------------|

  1:04
G ------------------------------------------------------------------------------------------------|
D ------------------------------------------------------------------------------------------------|
A ------------------------------------------------------------------------------------------------|
E 3-----3-----3-----3-----------3-----------3-----6-----6-----6-----6-----------6-----------6-----|

  1:07
G ------------------------------------------------------------------------------------------------|
D ------------------------------------------------------------------------------------------------|
A ------------------------------------------------------------------------------------------------|
E ------------------------------------------------------------------------------------------------|

  1:10
G ------------------------------------------------------------------------------------------------|
D ------------------------------------------------------------------------------------------------|
A ------------------------------------------------------------------------------------------------|
E ------------------------------------------------------------------------------------------------|

  1:13
G ------------------------------------------------------------------------------------------------|
D ------------------------------------------------------------------------------------------------|
A ------------------------------------------------------------------------------------------------|
E ------------------------------------------------------------------------------------------------|

  1:16
G ------------------------------------------------------------------------------------------------|
D ------------------------------------------------------------------------------------------------|
A ------------------------------------------------------------------------------------------------|
E ------------------------------------------------------------------------------------------------|

  1:19
G ------------------------------------------------------------------------------------------------|
D ------------------------------------------------------------------------------------------------|
A 6-----6-----6-----6-----6-----6-----6-----6-----3-----3-----3-----3-----3-----3-----3-----3-----|
E ------------------------------------------------------------------------------------------------|

  1:21
G ------------------------------------------------------------------------------------------------|
D ------------------------------------------------------------------------------------------------|
A ------------------------------------------------------------------------------------------------|
E 3-----3-----3-----3-----3-----3-----3-----3-----6-----6-----6-----6-----6-----6-----6-----6-----|

  1:24
G ------------------------------------------------------------------------------------------------|
D ------------------------------------------------------------------------------------------------|
A 6-----6-----6-----6-----6-----6-----6-----6-----3-----3-----3-----3-----3-----3-----3-----3-----|
E ------------------------------------------------------------------------------------------------|

  1:27
G ------------------------------------------------------------------------------------------------|
D ------------------------------------------------------------------------------------------------|
A ------------------------------------------------------------------------------------------------|
E 3-----3-----3-----3-----3-----3-----3-----3-----6-----6-----6-----6-----6-----6-----6-----6-----|

  1:30
G ------------------------------------------------------------------------------------------------|
D ------------------------------------------------------------------------------------------------|
A ------------------------------------------------6-----6--6--6--6--6--6--3-----3-----------3-----|
E 6-----6-----6-----6-----6-----6-----6-----6--------------------------------------6-----6--------|

  1:33
G ------------------------------------------------------------------------------------------------|
D ------------------------------------------------------------------------------------------------|
A ------------------------------------------------------------------------------------------------|
E 3-----3--3--3--3--3--3--3--3--3--3--3--3--3--3--0-----0--0--0--0--0-----0--0--0--0--0-----0--0--|

  1:35
G ------------------------------------------------------------------------------------------------|
D ------------------------------------------------------------------------------------------------|
A ------------------------------------------------6-----6--6--6--6--6--6--3-----3-----------3-----|
E 1-----1--1--1--1--1-----1--1--1--1--1-----1--1-----------------------------------6-----6--------|

  1:38
G ------------------------------------------------------------------------------------------------|
D ------------------------------------------------------------------------------------------------|
A ------------------------------------------------------------------------------------------------|
E 3-----3--3--3--3--3--3--3--3--3--3--3--3--3--3--0-----0--0--0--0--0-----0--0--0--0--0-----0--0--|

  1:41
G ------------------------------------------------------------------------------------------------|
D ------------------------------------------------------------------------------------------------|
A ------------------------------------------------6-----6--6--6--6--6--6--3-----3-----------3-----|
E 1-----1--1--1--1--1-----1--1--1--1--1-----1--1-----------------------------------6-----6--------|

  1:44
G ------------------------------------------------------------------------------------------------|
D ------------------------------------------------------------------------------------------------|
A ------------------------------------------------------------------------------------------------|
E 3-----3--3--3--3--3--3--3--3--3--3--3--3--3--3--0-----0--0--0--0--0-----0--0--0--0--0-----0--0--|

  1:47
G ------------------------------------------------------------------------------------------------|
D ------------------------------------------------------------------------------------------------|
A ------------------------------------------------6-----6-----6-----6-----------6-----------6-----|
E 1-----1--1--1--1--1-----1--1--1--1--1-----1--1--------------------------------------------------|

  1:50
G ------------------------------------------------------------------------------------------------|
D ------------------------------------------------------------------------------------------------|
A 3-----3-----3-----3-----------3-----------3-----------------------------------------------------|
E ------------------------------------------------3-----3-----3-----3-----------3-----------3-----|

  1:52
G ------------------------------------------------------------------------------------------------|
D ------------------------------------------------------------------------------------------------|
A ------------------------------------------------6-----6-----6-----6-----------6-----------6-----|
E 6-----6-----6-----6-----------6-----------6-----------------------------------------------------|

  1:55
G ------------------------------------------------------------------------------------------------|
D ------------------------------------------------------------------------------------------------|
A 3-----3-----3-----3-----------3-----------3-----------------------------------------------------|
E ------------------------------------------------3-----3-----3-----3-----------3-----------3-----|

  1:58
G ------------------------------------------------------------------------------------------------|
D ------------------------------------------------------------------------------------------------|
A ------------------------------------------------6-----6-----6-----6-----------6-----------6-----|
E 6-----6-----6-----6-----------6-----------6-----------------------------------------------------|

  2:01
G ------------------------------------------------------------------------------------------------|
D ------------------------------------------------------------------------------------------------|
A 3-----3-----3-----3-----------3-----------3-----------------------------------------------------|
E ------------------------------------------------3-----3-----3-----3-----------3-----------3-----|

  2:04
G ------------------------------------------------------------------------------------------------|
D ------------------------------------------------------------------------------------------------|
A ------------------------------------------------6-----6-----6-----6-----------6-----------6-----|
E 6-----6-----6-----6-----------6-----------6-----------------------------------------------------|

  2:06
G ------------------------------------------------------------------------------------------------|
D ------------------------------------------------------------------------------------------------|
A 3-----3-----3-----3-----------3-----------3-----------------------------------------------------|
E ------------------------------------------------3-----3-----3-----3-----------3-----------3-----|

  2:09
G ------------------------------------------------------------------------------------------------|
D ------------------------------------------------------------------------------------------------|
A ------------------------------------------------6-----6--6--6--6--6--6--3-----3-----------3-----|
E 6-----6-----6-----6-----------6-----------6--------------------------------------6-----6--------|

  2:12
G ------------------------------------------------------------------------------------------------|
D ------------------------------------------------------------------------------------------------|
A ------------------------------------------------------------------------------------------------|
E 3-----3--3--3--3--3--3--3--3--3--3--3--3--3--3--0-----0--0--0--0--0-----0--0--0--0--0-----0--0--|

  2:15
G ------------------------------------------------------------------------------------------------|
D ------------------------------------------------------------------------------------------------|
A ------------------------------------------------------------------------------------------------|
E 1-----1--1--1--1--1-----1--1--1--1--1-----1--1--1-----------------------0-----------------------|

  2:18
G ------------------------------------------------------------------------------------------------|
D ------------------------------------------------------------------------------------------------|
A ------------------------------------------------------------------------------------------------|
E ------------------------------------------------------------------------------------------------|

  2:21
G ------------------------------------------------------------------------------------------------|
D ------------------------------------------------------------------------------------------------|
A ------------------------------------------------------------------------------------------------|
E ------------------------------------------------------------------------------------------------|

  2:23
G ------------------------------------------------------------------------------------------------|
D ------------------------------------------------------------------------------------------------|
A ------------------------------------------------------------------------------------------------|
E ------------------------------------------------------------------------0-----------------------|

  2:26
G ------------------------------------------------|
D ------------------------------------------------|
A ------------------------------------------------|
E ------------------------------------------------|
comments
We did not receive enough feedback on this tab! Please rate:
1 2 3 4 5
I want to post or [tab]
guest
You may want to rate the tab now too:
select rating
Please do not post tabs as comments. Select "correction" instead!