Oops, an error
Loading. Please wait.

Unchained Beast - Gates Of Dumbr Tab

8 views 1 this week
no commentswrite comment
1 2 3 4 5
please rate
add to favorites launch autoscroll
font size
0
reset
Autoscroll
+/-
esc
set tempo
stop
Contributor
Difficulty
intermediate
WARNING: You are trying to view
                                    content from Ultimate-Guitar.com
                                    in an unauthorized application,
                                    which is prohibited.

                                    Please use an official Ultimate
                                    Guitar Tabs application for iPhone,
                                    iPad or Android to access legitimate
                                    chords, guitar, bass, and drum tabs
                                    from Ultimate-Guitar.com database.

                                    Type "ultimate guitar tabs" in Apple
                                    App Store's or Android Market's
                                    search to find the application.
Tempo = 125
Rhythm Guitar

Legend
L - tied note
x - dead note
h - hammer on/pull off
b - bend
s - slide
~ - vibrato
g - ghost note
> - accentuated note
t - trill
M - palm mute
. - staccato
P - popping (bass)
S - slapping (bass)
+ - tapping
W - wide vibrato
< - fade in
w - whammy bar
= - tremolo picking
v - brush up
^ - brush down
V - pick stroke up
n - pick stroke down

                                            
E ||-3-----------3-------------------------|
B ||----0-----------0----------------------|
G ||o------0-----------0-------------------|
D ||o---------2-----------2----------------|
A ||---------------------------------------|
E ||---------------------------------------|

                                         
--2-----------2-------------------------|
-----0-----------0----------------------|
--------0-----------0-------------------|
-----------2-----------2----------------|
----------------------------------------|
----------------------------------------|

                                         
--0-----------0-------------------------|
-----3-----------3----------------------|
--------4-----------4-------------------|
-----------2-----------2----------------|
----------------------------------------|
----------------------------------------|

                                         
--0-----------0-------------------------|
-----0-----------0----------------------|
--------0-----------0-------------------|
-----------2-----------2----------------|
----------------------------------------|
----------------------------------------|

                                         
--3-----------3-----5-------------------|
-----0----------------------------------|
--------0-------------------------------|
-----------2-----2-----2----------------|
----------------------------------------|
----------------------------------------|

                                         
--2-----------0-------------------------|
-----0--------------3-------------------|
--------0-------------------------------|
-----------2-----2-----2----------------|
----------------------------------------|
----------------------------------------|

                                         
----------------------------------------|
--3--------3--------3-------------------|
-----4--------4--------4----------------|
--------2--------2----------------------|
----------------------------------------|
----------------------------------------|

                                         
--0-----------------0------------------||
-----0-----------0-----0---------------||
--------0-----0-----------------------o||
-----------2--------------------------o||
---------------------------------------||
---------------------------------------||

                                         
----------------------------------------|
--1-----------1-------------------------|
-----2-----------2----------------------|
--------2-----------3-------------------|
-----------0-----------0----------------|
----------------------------------------|

                                         
----------------------------------------|
--1-----------1-------------------------|
-----2-----------2----------------------|
--------4-----------3-------------------|
-----------0-----------0----------------|
----------------------------------------|

                                         
----------------------------------------|
--0-----------0-------------------------|
-----0-----------0----------------------|
--------2-----------2-------------------|
-----------2-----------1----------------|
----------------------------------------|

                                         
----------------------------------------|
--0-----------0-------------------------|
-----0-----------0----------------------|
--------2-----------2-------------------|
-----------0-----------1----------------|
----------------------------------------|

                                         
----------------------------------------|
--1-----------1-------------------------|
-----2-----------2----------------------|
--------3-----------3-------------------|
-----------0-----------0----------------|
----------------------------------------|

                                         
----------------------------------------|
--3-----------1-------------------------|
-----4-----------2----------------------|
--------5-----------3-------------------|
-----------5-----------3----------------|
----------------------------------------|

                                         
----------------------------------------|
--0-----------0-------------------------|
-----0-----------0----------------------|
--------2-----------2-------------------|
-----------2-----------2----------------|
----------------------------------------|

                                         
----------------------------------------|
----------------------------------------|
----------------------------------------|
--2-----------9--8M-7M-6M---------------|
--2-----------7--6M-5M-4M---------------|
--0-------------------------------------|

                                                             
----------------------------------------|-------------------|
----------------------------------------|-------------------|
----------------------------------------|-------------------|
--5--------4----------------------------|-------------------|
--3--------2L----2--5M-4M---------------|--2----------------|
--------0M----------3M-2M---------------|--0----------------|

                                         
----------------------------------------|
----------------------------------------|
----------------------------------------|
--------------8--7M-6M-5M---------------|
--2-----------6--5M-4M-3M---------------|
--0-------------------------------------|

                                                             
----------------------------------------|-------------------|
----------------------------------------|-------------------|
----------------------------------------|-------------------|
--4--------3L----3----------------------|-------------------|
--2--------1L----1--4M-2M---------------|--3L---------------|
--------0M----------2M-0M---------------|--1L---------------|

                                         
----------------------------------------|
----------------------------------------|
----------------------------------------|
--------------9--8M-7M-6M---------------|
--3-----------7--6M-5M-4M---------------|
--1-------------------------------------|

                                         
----------------------------------------|
----------------------------------------|
----------------------------------------|
--5--------4L----4----------------------|
--3--------2L----2--5M-4M---------------|
--------0M----------3M-2M---------------|

                                                                 
----------------------------------------------------------------|
----------------------------------------------------------------|
----------------------------------------------------------------|
----------------------------------------------------------------|
--------------------------5h----2-------------------------------|
--0M-0M-0M----0M-0M-0M----------------0M-0M-0M------------------|

                                                                 
----------------------------------------------------------------|
----------------------------------------------------------------|
----------------------------------------------------------------|
----------------------------------------------------------------|
--3h----0-----------------2-----------1-------------------------|
--------------0M-0M-0M----------3-----------2-------------------|

                                                                 
----------------------------------------------------------------|
----------------------------------------------------------------|
----------------------------------------------------------------|
----------------------------------------------------------------|
--------------------------5h----2-------------------------------|
--0M-0M-0M----0M-0M-0M----------------0M-0M-0M------------------|

                                                                 
----------------------------------------------------------------|
----------------------------------------------------------------|
----------------------------------------------------------------|
----------------------------------------------------------------|
--3h----0-----------------2-----------1-------------------------|
--------------0M-0M-0M----3-----------2-------------------------|

                                                                 
----------------------------------------------------------------|
----------------------------------------------------------------|
----------------------------------------------------------------|
----------------------------------------------------------------|
--------------------------5h----2-------------------------------|
--0M-0M-0M----0M-0M-0M----------------0M-0M-0M------------------|

                                                                 
----------------------------------------------------------------|
----------------------------------------------------------------|
----------------------------------------------------------------|
----------------------------------------------------------------|
--3h----0-----------------2-----------1-------------------------|
--------------0M-0M-0M----------3-----------2-------------------|

                                                                 
----------------------------------------------------------------|
----------------------------------------------------------------|
----------------------------------------------------------------|
----------------------------------------------------------------|
--------------------------5h----2-------------------------------|
--0M-0M-0M----0M-0M-0M----------------0M-0M-0M------------------|

                                                                 
----------------------------------------------------------------|
----------------------------------------------------------------|
----------------------------------------------------------------|
----------------------------------------------------------------|
--3h----0-----------------2-----------1-------------------------|
--------------0M-0M-0M----3-----------2-------------------------|

                                                                 
----------------------------------------------------------------|
----------------------------------------------------------------|
----------------------------------------------------------------|
----------------------------------------------------------------|
--------------------------5h----2-------------------------------|
--0M-0M-0M----0M-0M-0M----------------0M-0M-0M------------------|

                                                                 
----------------------------------------------------------------|
----------------------------------------------------------------|
----------------------------------------------------------------|
----------------------------------------------------------------|
--3h----0-----------------2-----------1-------------------------|
--------------0M-0M-0M----------3-----------2-------------------|

                                                                 
----------------------------------------------------------------|
----------------------------------------------------------------|
----------------------------------------------------------------|
----------------------------------------------------------------|
--------------------------5h----2-------------------------------|
--0M-0M-0M----0M-0M-0M----------------0M-0M-0M------------------|

                                                                 
----------------------------------------------------------------|
----------------------------------------------------------------|
----------------------------------------------------------------|
----------------------------------------------------------------|
--3h----0-----------------2-----------1-------------------------|
--------------0M-0M-0M----3-----------2-------------------------|

                                                                 
----------------------------------------------------------------|
----------------------------------------------------------------|
----------------------------------------------------------------|
----------------------------------------------------------------|
--------------------------5h----2-------------------------------|
--0M-0M-0M----0M-0M-0M----------------0M-0M-0M------------------|

                                                                 
----------------------------------------------------------------|
----------------------------------------------------------------|
----------------------------------------------------------------|
----------------------------------------------------------------|
--3h----0-----------------2-----------1-------------------------|
--------------0M-0M-0M----------3-----------2-------------------|

                                                                 
----------------------------------------------------------------|
----------------------------------------------------------------|
----------------------------------------------------------------|
----------------------------------------------------------------|
--------------------------5h----2-------------------------------|
--0M-0M-0M----0M-0M-0M----------------0M-0M-0M------------------|

                                                                 
----------------------------------------------------------------|
----------------------------------------------------------------|
----------------------------------------------------------------|
----------------------------------------------------------------|
--3h----0-----------------2-----------1-------------------------|
--------------0M-0M-0M----3-----------2-------------------------|

                                                                 
----------------------------------------------------------------|
----------------------------------------------------------------|
----------------------------------------------------------------|
----------------------------------------------------------------|
--------------------------5h----2-------------------------------|
--0M-0M-0M----0M-0M-0M----------------0M-0M-0M------------------|

                                                                 
----------------------------------------------------------------|
----------------------------------------------------------------|
----------------------------------------------------------------|
----------------------------------------------------------------|
--3h----0-----------------2-----------1-------------------------|
--------------0M-0M-0M----------3-----------2-------------------|

                                                                 
----------------------------------------------------------------|
----------------------------------------------------------------|
----------------------------------------------------------------|
----------------------------------------------------------------|
--------------------------5h----2-------------------------------|
--0M-0M-0M----0M-0M-0M----------------0M-0M-0M------------------|

                                                                                
--------------------------------------------------------------------------------
--------------------------------------------------------------------------------
--------------------------------------------------------------------------------
--------------------------------------------------------------------------------
--3h----0-----------------2-----------1-----------------------------------------
--------------0M-0M-0M----3-----------2-----------------------------------------

                                           
-----------|-------------------|----------|
-----------|-------------------|----------|
-----------|-------------------|----------|
-----------|--3----------------|--5--3----|
-----------|--3----------------|--5--3----|
-----------|--1----------------|--3--1----|

                                                     
----------------------------------------------------|
----------------------------------------------------|
----------------------------------------------------|
----------------------------------------------------|
--------------------------5h----2-------------------|
--0M-0M-0M----0M-0M-0M----------------0M-0M-0M------|

                                                     
----------------------------------------------------|
----------------------------------------------------|
----------------------------------------------------|
----------------------------------------------------|
--3h----0-----------------2-----------1-------------|
--------------0M-0M-0M----3-----------2-------------|

                                                          
----------------------------|----------------------------|
----------------------------|----------------------------|
----------------------------|-----------5--4-------------|
--2-------------------------|--4--5-----3--2-----5--4----|
--2-------------------------|--2--3-----3--2-----3--2----|
--0-----0M-0M-0M-0M-0M-0M---|--------0M-------0M---------|

                                                          
----------------------------|----------------------------|
----------------------------|----------------------------|
----------------------------|--------5-----4-------------|
--2-------------------------|--4--5--3-----2-----5-------|
--2-------------------------|--2--3--3-----2-----3-------|
--0-----0M-0M-0M-0M-0M-0M---|----------------------------|

                                                          
----------------------------|----------------------------|
----------------------------|----------------------------|
----------------------------|-----------5--4-------------|
--2-------------------------|--4--5-----3--2-----5--4----|
--2-------------------------|--2--3-----3--2-----3--2----|
--0-----0M-0M-0M-0M-0M-0M---|--------0M-------0M---------|

                                                          
----------------------------|--------------------0-------|
----------------------------|----------------------------|
----------------------------|--------5-----7-----4-------|
--2-------------------------|--4--5--3-----5-----2-------|
--2-------------------------|--2--3--3-----5-----2-------|
--0-----0M-0M-0M-0M-0M-0M---|----------------------------|

                                                          
----------------------------|----------------------------|
----------------------------|----------------------------|
----------------------------|----------------------------|
--2-------------------------|----------------------------|
--2-------------------------|--------------------3-------|
--0-----0M-0M-0M-0M-0M-0M---|--0M-0M-0M-0M-0M-0M-1-------|

                                                          
----------------------------|----------------------------|
----------------------------|----------------------------|
----------------------------|--------5-----4-------------|
--2-------------------------|--4--5--3-----2-----5-------|
--2-------------------------|--2--3--3-----2-----3-------|
--0-----0M-0M-0M-0M-0M-0M---|----------------------------|

                                                          
----------------------------|----------------------------|
----------------------------|----------------------------|
----------------------------|----------------------------|
--2-------------------------|----------------------------|
--2-------------------------|--------------------5-------|
--0-----0M-0M-0M-0M-0M-0M---|--0M-0M-0M-0M-0M-0M-3-------|

                                                          
----------------------------|----------------------------|
----------------------------|----------------------------|
----------------------------|--------5-----7-----4-------|
--2-------------------------|--4--5--3-----5-----2-------|
--2-------------------------|--2--3--3-----5-----2-------|
--0-----0M-0M-0M-0M-0M-0M---|----------------------------|

                                                          
----------------------------|----------------------------|
----------------------------|----------------------------|
----------------------------|--------------5--4----------|
----------------------------|--4--3--------3--2----------|
----------------------------|--2--1----------------------|
--0M-0M-0M-0M-0M-0M-0M-0M---|--------0M-0M-------0M-0M---|

                                                          
----------------------------|----------------------------|
----------------------------|----------------------------|
----------------------------|----------------------------|
--3--4----------------------|----------------------------|
--1--2----------------------|--------------2--1----------|
--------0M-0M-0M-0M-0M-0M---|--1M-0M-2M-0M-------3--2----|

                                                          
----------------------------|----------------------------|
----------------------------|----------------------------|
----------------------------|----------------------------|
--3--4----------------------|----------------------------|
--1--2----------------------|--2--1--------3--2----------|
--------0M-0M-0M-0M-0M-0M---|--------0M-0M-------0M-0M---|

                                                          
----------------------------|----------------------------|
----------------------------|----------------------------|
----------------------------|----------------------------|
--6--7----------------------|----------------------------|
--4--5----------------------|--------------2--1----------|
--------0M-0M-0M-0M-0M-0M---|--1h-0--2h-0--------3--2----|

                                                          
----------------------------|----------------------------|
----------------------------|----------------------------|
----------------------------|----------------------------|
----------------------------|----------------------------|
--5M-5M-4-----4M-4M-5-------|--------------2--1----------|
--3M-3M-2-----2M-2M-3-------|--1h-0--2h-0--------3--2----|

                                                          
----------------------------|----------------------------|
----------------------------|----------------------------|
----------------------------|----------------------------|
----------------------------|----------------------------|
--5M-5M-4-----4M-4M-3-------|--------------1--2----------|
--3M-3M-2-----2M-2M-1-------|--1h-0--2h-0--------2--3----|

                                                          
----------------------------|----------------------------|
----------------------------|----------------------------|
----------------------------|----------------------------|
----------------------------|----------------------------|
--5M-5M-4-----4M-4M-5-------|--------------2--1----------|
--3M-3M-2-----2M-2M-3-------|--1h-0--2h-0--------3--2----|

                                                                             
----------------------------|----------|-------|----------------------------|
----------------------------|----------|-------|----------------------------|
----------------------------|----------|-------|----------------------------|
----------------------------|-----3----|-------|----------------------------|
--5M-5M-4-----3M-3M-2-------|--4--1----|--2L---|--2-----------2--1----------|
--3M-3M-2-----1M-1M-0-------|--2-------|--0L---|--0-----------------3--2----|

                                                          
----------------------------|----------------------------|
----------------------------|----------------------------|
----------------------------|----------------------------|
----------------------------|----------------------------|
--2-------------------------|--------------------3-------|
--0-----0M-0M-0M-0M-0M-0M---|--0M-0M-0M-0M-0M-0M-1-------|

                                                          
----------------------------|----------------------------|
----------------------------|----------------------------|
----------------------------|--------5-----4-------------|
----------------------------|--4--5--3-----2-----5-------|
--2-------------------------|--2--3--3-----2-----3-------|
--0-----0M-0M-0M-0M-0M-0M---|----------------------------|

                                                          
----------------------------|----------------------------|
----------------------------|----------------------------|
----------------------------|----------------------------|
----------------------------|----------------------------|
--2-------------------------|--------------------5-------|
--0-----0M-0M-0M-0M-0M-0M---|--0M-0M-0M-0M-0M-0M-3-------|

                                                          
----------------------------|----------------------------|
----------------------------|----------------------------|
----------------------------|--------5-----7-----4-------|
----------------------------|--4--5--3-----5-----2-------|
--2-------------------------|--2--3--3-----5-----2-------|
--0-----0M-0M-0M-0M-0M-0M---|----------------------------|

                                                        
-------------------------------------------------------|
-------------------------------------------------------|
-------------------------------------------------------|
-------------------------------------------------------|
--2----------------------------------------------------|
--0-----------0M-0M-0M-0M----0M----0M----0M----0M------|

                                                     
----------------------------------------------------|
----------------------------------------------------|
--------------------------5-----4-------------------|
--4-----2-----------------3-----2-------------------|
--2-----1-----------------3-----2-------------------|
--------------0M-0M-0M-0M-------------0M-0M-0M-0M---|

                                                     
----------------------------------------------------|
----------------------------------------------------|
----------------------------------------------------|
--3-----4-------------------------------------------|
--1-----2-------------------------------------------|
--------------0M----0M-0M-0M----0M----0M----0M------|

                             
----------------------------|
----------------------------|
----------------------------|
----------------------------|
--------------2--1----------|
--1M-0M-2M-0M-------3--2----|

                                                     
----------------------------------------------------|
----------------------------------------------------|
----------------------------------------------------|
--3-----4-------------------------------------------|
--1-----2-------------------------------------------|
--------------0M-0M-0M-0M-0M----0M----0M----0M------|

                                      w              
----------------------------------------------------|
----------------------------------------------------|
--------------------------5-----4-------------------|
--4-----3-----------------3-----2-------------------|
--2-----1-----------------3-----2-------------------|
--------------0M-0M-0M-0M-------------0M-0M-0M-0M---|

                                                     
----------------------------------------------------|
----------------------------------------------------|
----------------------------------------------------|
--6-----7-------------------------------------------|
--4-----5-------------------------------------------|
--------------0M----0M-0M-0M----0M----0M----0M------|

                                                          
----------------------------|----------------------------|
----------------------------|----------------------------|
----------------------------|----------------------------|
----------------------------|----------------------------|
--------------2h-1----------|--2L----------2-------------|
--1M-0M-2M-0M-------3h-2----|--0L----------0-----0M-0M---|

                                                                  
----------------------------|----------------------------|-------|
----------------------------|----------------------------|-------|
----------------------------|----------------------------|-------|
----------------------------|----------------------------|--4----|
--3L----------3-------------|--4L----------4-------------|--2----|
--1L----------1-----0M-0M---|--2L----------2-----0M-0M---|--2----|

                                                          
----------------------------|----------------------------|
----------------------------|----------------------------|
----------------------------|----------------------------|
----------------------------|----------------------------|
--2L----------2-------------|--3L----------3-------------|
--0L----------0-----0M-0M---|--1L----------1-----0M-0M---|

                             
----------------------------|
----------------------------|
----------------------------|
----------------------------|
--4L----------4-------------|
--2L----------2-----0M-0M---|

                                                     
----------------------------------------------------|
----------------------------------------------------|
----------------------------------------------------|
----------------------------------------------------|
--2M----2M-2M-2M----2M----3M----2M------------------|
--------------------------------------3M----0M------|

                                                          
----------------------------|----------------------------|
----------------------------|----------------------------|
----------------------------|----------------------------|
----------------------------|----------------------------|
--4-------------------------|----------------------------|
--2-----2M-2M-2M-2M-2M-2M---|--3M-3M-3M-3M-3M-3M-3M-3M---|

                                                          
----------------------------|----------------------------|
----------------------------|----------------------------|
----------------------------|----------------------------|
----------------------------|--6--------6--------6-------|
----------------------------|--4--4M-4M-4--4M-4M-4-------|
--4M-4M-4M-4M-4M-4M-4M-4M---|--4--4M-4M-4--4M-4M-4-------|

                                                          
----------------------------|----------------------------|
----------------------------|----------------------------|
----------------------------|----------------------------|
----------------------------|----------------------------|
--4-------------------------|----------------------------|
--2-----2M-2M-2M-2M-2M-2M---|--3M-3M-3M-3M-3M-3M-3M-3M---|

                                                          
----------------------------|----------------------------|
----------------------------|----------------------------|
----------------------------|----------------------------|
----------------------------|--6-------------------------|
----------------------------|--4-----------------7s------|
--4M-4M-4M-4M-4M-4M-4M-4M---|--4-----------------7s------|

                                                     
----------------------------------------------------|
----------------------------------------------------|
----------------------------------------------------|
----------------------------------------------------|
--------------------------5h----2-------------------|
--0M-0M-0M----0M-0M-0M----------------0M-0M-0M------|

                                                     
----------------------------------------------------|
----------------------------------------------------|
----------------------------------------------------|
----------------------------------------------------|
--3h----0-----------------2-----------1-------------|
--------------0M-0M-0M----------3-----------2-------|

                                                     
----------------------------------------------------|
----------------------------------------------------|
----------------------------------------------------|
----------------------------------------------------|
--------------------------5h----2-------------------|
--0M-0M-0M----0M-0M-0M----------------0M-0M-0M------|

                                                     
----------------------------------------------------|
----------------------------------------------------|
----------------------------------------------------|
----------------------------------------------------|
--3h----0-----------------2-----------1-------------|
--------------0M-0M-0M----3-----------2-------------|

                                                     
----------------------------------------------------|
----------------------------------------------------|
----------------------------------------------------|
----------------------------------------------------|
--------------------------5h----2-------------------|
--0M-0M-0M----0M-0M-0M----------------0M-0M-0M------|

                                                     
----------------------------------------------------|
----------------------------------------------------|
----------------------------------------------------|
----------------------------------------------------|
--3-----0-----------------2-----------1-------------|
--------------0M-0M-0M----------3-----------2-------|

                                                     
----------------------------------------------------|
----------------------------------------------------|
----------------------------------------------------|
----------------------------------------------------|
--------------------------5h----2-------------------|
--0M-0M-0M----0M-0M-0M----------------0M-0M-0M------|

                                                     
----------------------------------------------------|
----------------------------------------------------|
----------------------------------------------------|
----------------------------------------------------|
--3h----0-----------------2-----------1-------------|
--------------0M-0M-0M----3-----------2-------------|

                                                     
----------------------------------------------------|
----------------------------------------------------|
----------------------------------------------------|
----------------------------------------------------|
--------------4M----5-----4-------------------------|
--2M-2M-2M----2M----3-----2-----2M----2M-2M-2M------|

                                                     
----------------------------------------------------|
----------------------------------------------------|
----------------------------------------------------|
--------------------5-------------------------------|
--------------------3-----4-------------------------|
--2M-2M-2M----2M----------2-----2M----2M-2M-2M------|

                                                     
----------------------------------------------------|
----------------------------------------------------|
----------------------------------------------------|
--------------------------------------------5-------|
--------------------5-----4-----------------3-------|
--2M-2M-2M----2M----3-----2-----2M----2M------------|

                                                
----------------------------|-------|----------|
----------------------------|-------|----------|
----------------------------|-------|----------|
--4-------------------------|-------|----------|
--2-----5M----5M-4M----7----|--5----|--7--5----|
-----0M-3M-0M-3M-2M-0M-5----|--3----|--5--3----|

                                                     
----------------------------------------------------|
----------------------------------------------------|
----------------------------------------------------|
--------------------------2-------------------------|
--------------------------------4-------------------|
--2M-2M-2M----2M-2M-2M----------------2--2M-2M------|

                                                     
----------------------------------------------------|
----------------------------------------------------|
----------------------------------------------------|
--0-------------------------------------------------|
--------2-----------------2-----------1-------------|
--------------0M-0M-0M----3-----------2-------------|

                                                          
----------------------------|----------------------------|
----------------------------|----------------------------|
----------------------------|-----------5--4-------------|
----------------------------|--4--5-----3--2-----5--4----|
--2-------------------------|--2--3-----3--2-----3--2----|
--0-----0M-0M-0M-0M-0M-0M---|--------0M-------0M---------|

                                                          
----------------------------|----------------------------|
----------------------------|----------------------------|
----------------------------|--------5-----4-------------|
----------------------------|--4--5--3-----2-----5-------|
--2-------------------------|--2--3--3-----2-----3-------|
--0-----0M-0M-0M-0M-0M-0M---|----------------------------|

                                                          
----------------------------|----------------------------|
----------------------------|----------------------------|
----------------------------|-----------5--4-------------|
----------------------------|--4--5-----3--2-----5--4----|
--2-------------------------|--2--3-----3--2-----3--2----|
--0-----0M-0M-0M-0M-0M-0M---|--------0M-------0M---------|

                                                          
----------------------------|----------------------------|
----------------------------|----------------------------|
----------------------------|--------5-----7-----4-------|
----------------------------|--4--5--3-----5-----2-------|
--2-------------------------|--2--3--3-----5-----2-------|
--0-----0M-0M-0M-0M-0M-0M---|----------------------------|

                                                          
----------------------------|----------------------------|
----------------------------|----------------------------|
----------------------------|----------------------------|
----------------------------|----------------------------|
--2-------------------------|--------------------3-------|
--0-----0M-0M-0M-0M-0M-0M---|--0M-0M-0M-0M-0M-0M-1-------|

                                                          
----------------------------|----------------------------|
----------------------------|----------------------------|
----------------------------|--------5-----4-------------|
----------------------------|--4--5--3-----2-----5-------|
--2-------------------------|--2--3--3-----2-----3-------|
--0-----0M-0M-0M-0M-0M-0M---|----------------------------|

                                                          
----------------------------|----------------------------|
----------------------------|----------------------------|
----------------------------|----------------------------|
----------------------------|----------------------------|
--2-------------------------|--------------------5-------|
--0-----0M-0M-0M-0M-0M-0M---|--0M-0M-0M-0M-0M-0M-3-------|

                                                          
----------------------------|----------------------------|
----------------------------|----------------------------|
----------------------------|--------5-----7-----4-------|
----------------------------|--4--5--3-----5-----2-------|
--2-------------------------|--2--3--3-----5-----2-------|
--0-----0M-0M-0M-0M-0M-0M---|----------------------------|

                                                     
----------------------------------------------------|
----------------------------------------------------|
----------------------------------------------------|
----------------------------------------------------|
--2-------------------------------------------------|
--0-----------0M-0M-0M-0M-0M----0M----0M----0M------|

                                                     
----------------------------------------------------|
----------------------------------------------------|
--------------------------5-----4-------------------|
--4-----3-----------------3-----2-------------------|
--2-----1-----------------3-----2-------------------|
--------------0M-0M-0M-0M-------------0M-0M-0M-0M---|

                                                     
----------------------------------------------------|
----------------------------------------------------|
----------------------------------------------------|
--3-----4-------------------------------------------|
--1-----2-------------------------------------------|
--------------0M----0M-0M-0M----0M----0M----0M------|

                             
----------------------------|
----------------------------|
----------------------------|
----------------------------|
--------------2h-1----------|
--1M-0M-2M-0M-------3h-2----|

                                                     
----------------------------------------------------|
----------------------------------------------------|
----------------------------------------------------|
--3-----4-------------------------------------------|
--1-----2-------------------------------------------|
--------------0M-0M-0M-0M-0M----0M----0M----0M------|

                                                     
----------------------------------------------------|
----------------------------------------------------|
--------------------------5-----4-------------------|
--4-----3-----------------3-----2-------------------|
--2-----1-----------------3-----2-------------------|
--------------0M-0M-0M-0M-------------0M-0M-0M-0M---|

                                                     
----------------------------------------------------|
----------------------------------------------------|
----------------------------------------------------|
--6-----7-------------------------------------------|
--4-----5-------------------------------------------|
--------------0M----0M-0M-0M----0M----0M----0M------|

                                                          
----------------------------|----------------------------|
----------------------------|----------------------------|
----------------------------|----------------------------|
----------------------------|----------------------------|
--------------2h-1----------|--2L----------2-------------|
--1M-0M-2M-0M-------3h-2----|--0L----------0-----0M-0M---|

                                                                  
----------------------------|----------------------------|-------|
----------------------------|----------------------------|-------|
----------------------------|----------------------------|-------|
----------------------------|----------------------------|--4----|
--3L----------3-------------|--4L----------4-------------|--2----|
--1L----------1-----0M-0M---|--2L----------2-----0M-0M---|--2----|

                               w
----------------------------|----------------------------|
----------------------------|----------------------------|
----------------------------|----------------------------|
----------------------------|----------------------------|
--2L----------2-------------|--3L----------3-------------|
--0L----------0-----0M-0M---|--1L----------1-----0M-0M---|


----------------------------|
----------------------------|
----------------------------|
----------------------------|
--4L----------4-------------|
--2L----------2-----0M-0M---|


----------------------------------------------------|
----------------------------------------------------|
----------------------------------------------------|
----------------------------------------------------|
--2M----2M-2M-2M----2M----3M----2M------------------|
--------------------------------------3M----0M------|


----------------------------|----------------------------|
----------------------------|----------------------------|
----------------------------|----------------------------|
----------------------------|----------------------------|
--4-------------------------|----------------------------|
--2-----2M-2M-2M-2M-2M-2M---|--3M-3M-3M-3M-3M-3M-3M-3M---|


----------------------------|----------------------------|
----------------------------|----------------------------|
----------------------------|----------------------------|
----------------------------|--6--------6--------6-------|
----------------------------|--4--4M-4M-4--4M-4M-4-------|
--4M-4M-4M-4M-4M-4M-4M-4M---|--4--4M-4M-4--4M-4M-4-------|


----------------------------|----------------------------|
----------------------------|----------------------------|
----------------------------|----------------------------|
----------------------------|----------------------------|
--4-------------------------|----------------------------|
--2-----2M-2M-2M-2M-2M-2M---|--3M-3M-3M-3M-3M-3M-3M-3M---|


----------------------------|----------------------------|
----------------------------|----------------------------|
----------------------------|----------------------------|
----------------------------|--6-----------------6--5----|
----------------------------|--4--4M-4M-4M-4M-4M-4--3----|
--4M-4M-4M-4M-4M-4M-4M-4M---|--4-----------------4--3----|


----------------------------|----------------------------|
----------------------------|----------------------------|
----------------------------|----------------------------|
--6-------------------------|----------------------------|
--4-----4M-4M-4M-4M-4M-4M---|--5M-5M-5M-5M-5M-5M-5M-5M---|
--4-------------------------|----------------------------|


----------------------------|----------------------------|
----------------------------|----------------------------|
----------------------------|----------------------------|
----------------------------|--9--------9--------9-------|
--6M-6M-6M-6M-6M-6M-6M-6M---|--7--7M-7M-7--7M-7M-7--7M---|
----------------------------|----------------------------|


----------------------------|----------------------------|
----------------------------|----------------------------|
----------------------------|----------------------------|
----------------------------|----------------------------|
--4M-4M-4M-4M-4M-4M-4M-4M---|--5M-5M-5M-5M-5M-5M-5M-5M---|
----------------------------|----------------------------|


----------------------------|----------------|-------|-------|-------|-------|
----------------------------|----------------|-------|-------|-------|-------|
----------------------------|----------------|-------|-------|-------|-------|
----------------------------|--9L----9-------|-------|-------|-------|-------|
--6M-6M-6M-6M-6M-6M-6M-6M---|--7L----7--7----|-------|-------|-------|-------|
----------------------------|--7L----7--7----|--0L---|--0L---|--0L---|--0----|


----|----------------------------|----------------------------|
----|----------------------------|----------------------------|
----|----------------------------|----------------------------|
----|-----------2-----3-----4----|--------2-----3--2--0--1----|
----|-----------0-----1-----2----|--------2-----3--2--0--2----|
----|--0M-0M-0M----0M----0M------|--0M-0M----0M---------------|


----------------------------|----------------------------|
----------------------------|----------------------------|
----------------------------|----------------------------|
----------------------------|--2--------2--3--2--0--2----|
--1M-1M-1M-1M-1M-1M-5-------|--2--------2--3--2--0--2----|
--------------------3-------|-----0M-0M------------------|


----------------------------|----------------------------|
----------------------------|----------------------------|
----------------------------|----------------------------|
-----------2-----3-----4----|--------2-----3--2--0--4----|
-----------0-----1-----2----|--------2-----3--2--0--2----|
--0M-0M-0M----0M----0M------|--0M-0M----0M---------------|


----------------------------|----------------------------|
----------------------------|----------------------------|
----------------------------|----------------------------|
--------------------4-------|--2--------2--3--2--0--2----|
--1M-1M-1M-1M-1M-1M-2-------|--2--------2--3--2--0--2----|
----------------------------|-----0M-0M------------------|


----------------------------|----------------------------|
----------------------------|----------------------------|
----------------------------|----------------------------|
-----------2-----3-----4----|--------2-----3--2--0--4----|
-----------0-----1-----2----|--------2-----3--2--0--2----|
--0M-0M-0M----0M----0M------|--0M-0M----0M---------------|


----------------------------|----------------------------|
----------------------------|----------------------------|
----------------------------|----------------------------|
----------------------------|--2--------2--3--2--0--2----|
--1M-1M-1M-1M-1M-1M-5-------|--2--------2--3--2--0--2----|
--------------------3-------|-----0M-0M------------------|


----------------------------|----------------------------|
----------------------------|----------------------------|
----------------------------|----------------------------|
-----------2-----3-----4----|--------2-----3--2--0--4----|
-----------0-----1-----2----|--------2-----3--2--0--2----|
--0M-0M-0M----0M----0M------|--0M-0M----0M---------------|


----------------------------|----------------------------|
----------------------------|----------------------------|
----------------------------|----------------------------|
--------------------4-------|--2--------2--3--2--0--2----|
--1M-1M-1M-1M-1M-1M-2-------|--2--------2--3--2--0--2----|
----------------------------|-----0M-0M------------------|


----------------------------|----------------------------|
----------------------------|----------------------------|
----------------------------|----------------------------|
-----------2-----3-----4----|--------2-----3--2--0--4----|
-----------0-----1-----2----|--------2-----3--2--0--2----|
--0M-0M-0M----0M----0M------|--0M-0M----0M---------------|


----------------------------|
----------------------------|
----------------------------|
----------------------------|
--1M-1M-1M-1M-1M-1M-5-------|
--------------------3-------|


----------------------------------------------------|
----------------------------------------------------|
----------------------------------------------------|
--9-----------------10----9-----------------10------|
--7-----------------8-----7-----------------8-------|
--------0M-0M-0M----------------0M-0M-0M------------|


----------------------------------------------------|
----------------------------------------------------|
--------------------------9h----10----10~-----------|
--9-----------------------7h----8-----8~------------|
--7-----------------------7h----8-----8~------------|
--------0M-0M-0M----0M------------------------------|


----------------------------------------------------|
----------------------------------------------------|
----------------------------------------------------|
--9-----------------10----9-----------------10------|
--7-----------------8-----7-----------------8-------|
--------0M-0M-0M----------------0M-0M-0M------------|


----------------------------|
----------------------------|
----------------------------|
--9-------------------------|
--7-----10----9-----8--9----|
-----0M-8--0M-7--0M-6--7----|


----------------------------------------------------|
----------------------------------------------------|
----------------------------------------------------|
--9-----------------10----9-----------------10------|
--7-----------------8-----7-----------------8-------|
--------0M-0M-0M----------------0M-0M-0M------------|


----------------------------------------------------|
----------------------------------------------------|
--------------------------9h----10----10~-----------|
--9-----------------------7h----8-----8~------------|
--7-----------------------7h----8-----8~------------|
--------0M-0M-0M----0M------------------------------|


----------------------------------------------------|
----------------------------------------------------|
----------------------------------------------------|
--9-----------------10----9-----------------10------|
--7-----------------8-----7-----------------8-------|
--------0M-0M-0M----------------0M-0M-0M------------|


----------------------------|
----------------------------|
----------------------------|
--9-------------------------|
--7-----10----9-----8--9----|
-----0M-8--0M-7--0M-6--7----|


----------------------------------------------------|
----------------------------------------------------|
----------------------------------------------------|
--------------------10----9-------------------------|
--------------------8-----7-------------------------|
--0M-0M-0M-0M-0M----------------0M-0M-0M-0M-0M-0M---|


----------------------------------------------------|
----------------------------------------------------|
----------------------------------------------------|
--------------------10----9-------------------------|
--------------------8-----7-------------------------|
--0M-0M-0M-0M-0M----------------0M-0M-0M-0M-0M-0M---|


----------------------------------------------------|
----------------------------------------------------|
----------------------------------------------------|
--------------------10----9-----------------10------|
--------------------8-----7-----------------8-------|
--0M-0M-0M-0M-0M----------------0M-0M-0M------------|


----------------------------|
----------------------------|
----------------------------|
--9-------------------------|
--7-----10----9-----8--9----|
-----0M-8--0M-7--0M-6--7----|


----------------------------------------------------|
----------------------------------------------------|
----------------------------------------------------|
--------------------10----9-------------------------|
--------------------8-----7-------------------------|
--0M-0M-0M-0M-0M----------------0M-0M-0M-0M-0M-0M---|


----------------------------------------------------|
----------------------------------------------------|
----------------------------------------------------|
--------------------10----9-------------------------|
--------------------8-----7-------------------------|
--0M-0M-0M-0M-0M----------------0M-0M-0M-0M-0M-0M---|


----------------------------------------------------|
----------------------------------------------------|
----------------------------------------------------|
--------------------10----9-----------------10------|
--------------------8-----7-----------------8-------|
--0M-0M-0M-0M-0M----------------0M-0M-0M------------|


----------------------------|
----------------------------|
----------------------------|
--9-------------------------|
--7-----10----9-----8--9----|
-----0M-8--0M-7--0M-6--7----|


----------------------------------------------------|
----------------------------------------------------|
----------------------------------------------------|
----------------------------------------------------|
--------------------5-----4-------------------------|
--2M-2M-2M-2M-2M----3-----2-----2M-2M-2M-2M-2M-2M---|


----------------------------------------------------|
----------------------------------------------------|
----------------------------------------------------|
--------------------5-------------------------------|
--------------------3-----4-------------------------|
--2M-2M-2M-2M-2M----------2-----2M-2M-2M-2M-2M-2M---|


----------------------------------------------------|
----------------------------------------------------|
----------------------------------------------------|
--------------------------------------------5-------|
--------------------5-----4-----------------3-------|
--2M-2M-2M-2M-2M----3-----2-----2M-2M-2M------------|


----------------------------|
----------------------------|
----------------------------|
--4-------------------------|
--2-----5-----5M-4M-2M-7----|
-----0M-3--0M-3M-2M-0M-5----|


----------------------------------------------------|
----------------------------------------------------|
----------------------------------------------------|
----------------------------------------------------|
--------------------5-----4-------------------------|
--2M-2M-2M-2M-2M----3-----2-----2M-2M-2M-2M-2M-2M---|


----------------------------------------------------|
----------------------------------------------------|
----------------------------------------------------|
--------------------5-------------------------------|
--------------------3-----4-------------------------|
--2M-2M-2M-2M-2M----------2-----2M-2M-2M-2M-2M-2M---|


----------------------------------------------------|
----------------------------------------------------|
----------------------------------------------------|
--------------------------------------------5-------|
--------------------5-----4-----------------3-------|
--2M-2M-2M-2M-2M----3-----2-----2M-2M-2M------------|


----------------------------------------------------|
----------------------------------------------------|
----------------------------------------------------|
--4-------------------------------------------------|
--2-----------5-------------------------------------|
--------0M----3-----0M----3M-3M-2M-2M-1M-1M-0M-0M---|


----------------------------|----------------------------|
----------------------------|----------------------------|
----------------------------|----------------------------|
----------------------------|----------------------------|
--2L----------2-------------|--3L----------3-------------|
--0L----------0-----0M-0M---|--1L----------1-----0M-0M---|


----------------------------|-------|----------------------------|
----------------------------|-------|----------------------------|
----------------------------|-------|----------------------------|
----------------------------|--4----|----------------------------|
--4L----------4-------------|--2----|--2L----------2-------------|
--2L----------2-----0M-0M---|--2----|--0L----------0-----0M-0M---|


----------------------------|----------------------------|
----------------------------|----------------------------|
----------------------------|----------------------------|
----------------------------|----------------------------|
--3L----------3-------------|--4L----------4-------------|
--1L----------1-----0M-0M---|--2L----------2-----0M-0M---|


----------------------------------------------------|
----------------------------------------------------|
----------------------------------------------------|
----------------------------------------------------|
--2M----2M-2M-2M----2M----3M----2M------------------|
--------------------------------------3M----0M------|


----------------------------|----------------------------|
----------------------------|----------------------------|
----------------------------|----------------------------|
----------------------------|----------------------------|
--2L----------2-------------|--3L----------3-------------|
--0L----------0-----0M-0M---|--1L----------1-----0M-0M---|


----------------------------|-------|----------------------------|
----------------------------|-------|----------------------------|
----------------------------|-------|----------------------------|
----------------------------|--4----|----------------------------|
--4L----------4-------------|--2----|--2L----------2-------------|
--2L----------2-----0M-0M---|--2----|--0L----------0-----0M-0M---|


----------------------------|----------------------------|
----------------------------|----------------------------|
----------------------------|----------------------------|
----------------------------|----------------------------|
--3L----------3-------------|--4L----------4-------------|
--1L----------1-----0M-0M---|--2L----------2-----0M-0M---|


----------------------------------------------------|
----------------------------------------------------|
----------------------------------------------------|
----------------------------------------------------|
--2M----2M-2M-2M----2M----3M----2M------------------|
--------------------------------------3M----0M------|


----------------------------------------------------|
----------------------------------------------------|
----------------------------------------------------|
----------------------------------------------------|
--2M----2M-2M-2M----2M----3M----2M------------------|
--------------------------------------3M----0M------|


----------------------------------------------------|-------||
----------------------------------------------------|-------||
----------------------------------------------------|-------||
----------------------------------------------------|--2----||
--2M----2M-2M-2M----2M----3M----2M------------------|--2----||
--------------------------------------3M----2M------|--0----||
comments
We did not receive enough feedback on this tab! Please rate:
1 2 3 4 5
I want to post or [tab]
guest
You may want to rate the tab now too:
select rating
Please do not post tabs as comments. Select "correction" instead!