Oops, an error
Loading. Please wait.

Under The Rising Tide - Burn A Town Down Bass Tab

54 views 1 this week
no commentswrite comment
1 2 3 4 5
please rate
add to favorites launch autoscroll
font size
0
reset
Autoscroll
+/-
esc
set tempo
stop
Contributor
WARNING: You are trying to view
                                    content from Ultimate-Guitar.com
                                    in an unauthorized application,
                                    which is prohibited.

                                    Please use an official Ultimate
                                    Guitar Tabs application for iPhone,
                                    iPad or Android to access legitimate
                                    chords, guitar, bass, and drum tabs
                                    from Ultimate-Guitar.com database.

                                    Type "ultimate guitar tabs" in Apple
                                    App Store's or Android Market's
                                    search to find the application.
                                               
                                              Under the Rising Tide
                                                 Burn a Town Down


intro x2

F|---------------------------------------------------------------------|
C|----------------------------------------0h-8h-10-----------0h-8h-10--|
G|-------------------------------0h-8h-10------------0h-8h-10----------|
C|-0-0-----0-0-----0-0-----0-0-----------------------------------------|


F||--------------------------------------||--------------------------------------          
C||*------------------------------------*||-------------------------------------- Ending 1   
G||*--------8---10---7---8---5---7---3--*||---------8---10---7---8---5---7---12--            
C||--0-0------0----0---0---0---0---0-----||--0-0------0----0---0---0---0---0-----            


F|-----------------------------------------|
C|-----------------------------0h-8h-10----|
G|-----8---10---7---0h-8h-10---------------|
C|-0-0---0----0----------------------------| X2
Verse

F|--------------------------------------------------------------------------------------------------------|
C|--------------------------------------------------------0h-8h-10----------------------------------------|
G|-----------------------0h-8h-10---0h-7h-8---0h-8h-10----------------------------------------------------|
C|-0-0-0-0-0---0-0-----------------------------------------------------0-0-0-0-0---0-0---3p--0--5p--0--2--|
                                                                                        

F|--------------------------------------------------------------------------------------------------------|
C|--------------------------------------------------------0h-8h-10----------------------------------------|
G|-----------------------0h-8h-10---0h-7h-8---0h-8h-10----------------------------------------------------|
C|-0-0-0-0-0---0-0-----------------------------------------------------0-0-0-0-0---0-0---7p--0--8p--0--5--|
                                                                                         
F|--------------------------------------------------------------------------------------------------------|
C|--------------------------------------------------------0h-8h-10----------------------------------------|
G|-----------------------0h-8h-10---0h-7h-8---0h-8h-10----------------------------------------------------|
C|-0-0---0--0-0------0-------------------------------------------------0-0-0-0-0---0-0---3p--0--5p--0--2--|
                                                                                          

F|------------------------------------------------------------------------------------------------------|
C|--------------------------------------------------------0h-8h-10--------------------------------------|
G|-----------------------0h-8h-10---0h-7h-8---0h-8h-10--------------------------------------------------|
C|-0-0---0--0-0------0-------------------------------------------------0-0-0-0-0---0-0---0--------------|

breakdown 1

F||--------------------------------------------------------------------------------------------------
C||*-------------------------------------------------------------------------------------------------
G||*-------------------------------------------------------------------------------------------------
C||--0-0-0---0--0-0--3p-0-5p-0-2-----0-0-0---0--0-0--7p-0-8p-0-5-----0-0-0---0--0-0--3p-0-5p-0-2-----
                                                                                             
 
F|------------------------------------------------||                F|-----------------------------------------------|
C|-----------------------------------------------*||                C|-----------------------------------------------|
G|-----------------------------------------------*|| 1st            G|-----------------------------------------------| 2nd
C|-1-1-1--1-1-1--1-1-1--1-1-1---2-2-2--2-2-2--0---||(repeat slower) C|-1-1-1--1-1-1--1-1-1--1-1-1---3-3-3--3-3-3--0--|


Chorus


F|-----------------------------------------------------------------------------------------|
C|-----------------------------------------------------------------------------------------|
G|-------------------------------------------6-6-6-6-6-6-6-6-8-8-8-8-8-8-8-8---------------|
C|-0-0----------5-5-----3-3---1-1---0-0----------------------------------------------------|
        

F||---------------------------------------------------------------------
C||*-----7---5---3---5---7---5---3--------7---5---3---------5---3-3-----
G||*-5-5---5---5---5---5---5---5------5-5---5---5-------5-5---5-----3---
C||---------------------------------------------------------------------



F|-----------------------------------||-----------------------------------
C|-----7---5---7----8---10---8---7--*||----------------------------------- ending 1
G|-5-5---5---5---0----0----0---0----*||--6-6-6-6-6-6-6-6-8-8-8-8-8-8-8-8-- 
C|-----------------------------------||-----------------------------------

F|-----------------------------------------------------------------------------------------------------------||
C|-----7---5---3---------5---3-3-----------7---5---7----8---10---8---7---------------------------------------|| ending 2
G|-5-5---5---5-------5-5---5-----3-----5-5---5---5---0----0----0---0--------6-6-6-6-6-6-6-6-8-8-8-8-8-8-8-8--||  
C|-----------------------------------------------------------------------------------------------------------||


intro x2

F||--------------------------------------||--------------------------------------          
C||*------------------------------------*||-------------------------------------- Ending 1   
G||*--------8---10---7---8---5---7---3--*||---------8---10---7---8---5---7---12--            
C||--0-0------0----0---0---0---0---0-----||--0-0------0----0---0---0---0---0-----            


F|-----------------------------------------|
C|-----------------------------0h-8h-10----|
G|-----8---10---7---0h-8h-10---------------|
C|-0-0---0----0----------------------------| X2


Verse

F|--------------------------------------------------------------------------------------------------------|
C|--------------------------------------------------------0h-8h-10----------------------------------------|
G|-----------------------0h-8h-10---0h-7h-8---0h-8h-10----------------------------------------------------|
C|-0-0-0-0-0---0-0-----------------------------------------------------0-0-0-0-0---0-0---3p--0--5p--0--2--|
                                                                                       

F|--------------------------------------------------------------------------------------------------------|
C|--------------------------------------------------------0h-8h-10----------------------------------------|
G|-----------------------0h-8h-10---0h-7h-8---0h-8h-10----------------------------------------------------|
C|-0-0-0-0-0---0-0-----------------------------------------------------0-0-0-0-0---0-0---7p--0--8p--0--5--|
                                                                                      

F|--------------------------------------------------------------------------------------------------------|
C|--------------------------------------------------------0h-8h-10----------------------------------------|
G|-----------------------0h-8h-10---0h-7h-8---0h-8h-10----------------------------------------------------|
C|-0-0---0--0-0------0-------------------------------------------------0-0-0-0-0---0-0---3p--0--5p--0--2--|
                                                                                      

F|------------------------------------------------------------------------------------------------------|
C|--------------------------------------------------------0h-8h-10--------------------------------------|
G|-----------------------0h-8h-10---0h-7h-8---0h-8h-10--------------------------------------------------|
C|-0-0---0--0-0------0-------------------------------------------------0-0-0-0-0---0-0---0--------------|

breakdown 1

F||--------------------------------------------------------------------------------------------------
C||*-------------------------------------------------------------------------------------------------
G||*-------------------------------------------------------------------------------------------------
C||--0-0-0---0--0-0--3p-0-5p-0-2-----0-0-0---0--0-0--7p-0-8p-0-5-----0-0-0---0--0-0--3p-0-5p-0-2-----
                                                                                             
 
F|------------------------------------------------||                F|-----------------------------------------------|
C|-----------------------------------------------*||                C|-----------------------------------------------|
G|-----------------------------------------------*|| 1st            G|-----------------------------------------------| 2nd
C|-1-1-1--1-1-1--1-1-1--1-1-1---2-2-2--2-2-2--0---||(repeat slower) C|-1-1-1--1-1-1--1-1-1--1-1-1---3-3-3--3-3-3--0--|


Chorus


F||---------------------------------------------------------------------
C||*-----7---5---3---5---7---5---3--------7---5---3---------5---3-3-----
G||*-5-5---5---5---5---5---5---5------5-5---5---5-------5-5---5-----3---	
C||---------------------------------------------------------------------



F|-----------------------------------||-----------------------------------
C|-----7---5---7----8---10---8---7--*||-----7---5---3---------5---3-3----- 1st ending
G|-5-5---5---5---0----0----0---0----*||-5-5---5---5-------5-5---5-----3---
C|-----------------------------------||-----------------------------------

F|-----------------------------------|
C|-----------------------------------| 2nd ending
G|-6-6-6-6-6-6-6-6-6-8-8-8-8-8-8-8-8-|
C|-----------------------------------|

breakdown 2


F|-------------------------------------------------------------------------------------------------------------------|
C|-------------------------------------------------------------------------------------------------------------------|
G|-------------------------------------------------------------------------------------------------------------------|
C|-0-----------------3--------5--------0-----------------3---------5--------0-----------------3---------3-3-3-3-3----|

F|---------------------------------------------------------------------------------------------------------------------|
C|---------------------------------------------------------------------------------------------------------------------|
G|---------------------------------------------------------------------------------------------------------------------|
C|-0-0-0---0--0-0--------------0-0-0---0--0-0---3p-0-5p-0-2---0-0-0---0--0-0--------------0-0-0---0--0-0---7p-0-8p-0-5-|


F|----------------------------------------------------------------------|
C|----------------------------------------------------------------------|
G|----------------------------------------------------------------------|
C|-0-0-0---0--0-0----0-0-0----------0-0--0-0-0---0--0-0---3p-0-5p-0-2---|
                    (triplet)      (16th)

F|----------------------------------------------------------------------|
F|----------------------------------------------------------------------|
G|----------------------------------------------------------------------|
C|-0-0-0---0--0-0----0-0-0----------0-0--0-0-0---0--0-0---7p-0-8p-0-5---|

F|----------------------|
C|----------------------|
G|----------------------|
C|-0-0-0---0--0-0-------|
           (Let last note ring)

Tabbed by Kirk Tautz 
comments
We did not receive enough feedback on this tab! Please rate:
1 2 3 4 5
I want to post or [tab]
guest
You may want to rate the tab now too:
select rating
Please do not post tabs as comments. Select "correction" instead!