Oops, an error
Loading. Please wait.

Unlimited - Were Bringing The Jump Back Tab

72 views 1 this week
no commentswrite comment
1 2 3 4 5
please rate
add to favorites launch autoscroll
font size
0
reset
Autoscroll
+/-
esc
set tempo
stop
Contributor
Difficulty
Tuning
intermediate
C G C F A D
WARNING: You are trying to view
                                    content from Ultimate-Guitar.com
                                    in an unauthorized application,
                                    which is prohibited.

                                    Please use an official Ultimate
                                    Guitar Tabs application for iPhone,
                                    iPad or Android to access legitimate
                                    chords, guitar, bass, and drum tabs
                                    from Ultimate-Guitar.com database.

                                    Type "ultimate guitar tabs" in Apple
                                    App Store's or Android Market's
                                    search to find the application.
Unlimited
We’re Bringing The Jump Back - Leads
[Drop C]

|----------|
|----------|
|----------|
|-0----x\--|
|-0----x\--|
|-0----x\--|

I.)
|-----------------------------------------------------|
|-----------------------------------------------------|
|-----------------------------------------------------|
|-----------------------------------------------------|
|-----------------------------------------1-0-1---4---|
|-3-0-0---0-3-6-5-0-0---0-7-10-12-0-0---0-1-0-1---4---|

|-----------------------------------------------------|
|-----------------------------------------------------|
|-----------------------------------------------------|
|-----------------------------------------------------|
|-------------------------1-0-1---4---3--3-3-3---3----|
|-3-0-0---0-3-6-5-0-0---0-1-0-1---4---3--3-3-3---3----|

II.)
|-----------------------------------------------------|
|-----------------------------------------------------|
|-----------------------------------------------------|
|-----------------------------------------------------|
|----------------------------------------1-0-1---4-3--|
|-3-0-0-0-0---0-7-10-12-0-10-0-3-0-0---0-1-0-1---4-3--|

|-----------------------------------------------------|
|-----------------------------------------------------|
|-----------------------------------------------------|
|-----------------------------------------------------|
|------------------------------3--6--1-1--1-1--1------|
|-3-0-0-0-0---0-7-10-12-0-10-0-3--6--1-1--1-1--1------|

III.)
|---------------------------------------------------------|
|---------------------------------------------------------|
|---------------------------------------------------------|
|---------------------------------------------------------|
|---------------------------------------------1-0-1---4-3-|
|-3-0-0-0-0--0-0---0-3-0-6-6-6-6---3-0-0-0--0-1-0-1---4-3-|

|-----------------------------------------------------|
|-----------------------------------------------------|
|-----------------------------------------------------|
|-----------------------------------------------------|
|--------------------------------1--4--3-3--3-3--3----|
|-3-0-0-0--0-0---0-3-0-6-6-6-6---1--4--3-3--3-3--3----|

IV.)
|-------------------------------------------------------|
|---------------------------------------------------6---|
|---------------------------------------------------9---|
|-------------------------------------------------------|
|-----------------1-----------------------------6-------|
|-3-0-0-0---0-1-0-1---4-3-1-3---3-0-0-0---0-1-0-6-------|

|-------------------------------------------|
|-------------------------------------------|
|-------------------------------------------| “So bend your knees
|-------------------------------------------|   and jump!”
|-----------------1-------------4--4-5--5-1-|
|-3-0-0-0---0-1-0-1---4-3-1-3---4--4-5--5-1-|

Verse.)
|----------------------------------------------------------|
|----------------------------------------------------------|
|----------------------------------------------------------|
|----------------------------------------------------------|
|----------------------------------------------------------|
|-3-0-0-0---0-0-0---0-0-0---0-7-10-12-0-10-7-0-0-0---0-0-0-|

|------------------------------------------------------|
|--------------------------------------------------4---|
|--------------------------------------------------7---|
|------------------------------------------------------|
|--------------------------------------1-0-1---4-------|
|-0-7-10-12-0-10-0-7-0-0-0---0-0-0---0-1-0-1---4-------|

*repeated*
|----------------------------------------------------------|
|----------------------------------------------------------|
|----------------------------------------------------------|
|----------------------------------------------------------|
|----------------------------------------------------------|
|-3-0-0-0---0-0-0---0-0-0---0-7-10-12-0-10-7-0-0-0---0-0-0-|

|-----------------------------------------------------|-----------|
|--------------------------------------------------4--|-----------|
|--------------------------------------------------7--|-----------|
|-----------------------------------------------------|-----------|
|--------------------------------------1-0-1---4------|-3--3-4--4-|
|-0-7-10-12-0-10-0-7-0-0-0---0-0-0---0-1-0-1---4------|-3--3-4--4-|

Chorus.)
|------------------------------------------------------------------------|
|-8-------6--------------------------------------------------------------|
|-7-------5--------------------------------------------------------------|
|-5-------3--------------------------------------------------------------|
|-5-------3--------------------------------------------------------------|
|-5-------3------8--8--8-8---3--3-3-3--3-3-3-8--8--8-8---3--3-3-3--3-3-3-|
  |-Strum-|

|------------------------------------------------------------------------|
|-8-------6--------------------------------------------------------------|
|-7-------5--------------------------------------------------------------|
|-5-------3--------------------------------------------------------------|
|-5-------3--------------------------------------------------------------|
|-5-------3------8--8--8-8---3--3-3-3--3-3-3-8--8--8-8---3--3-3-3--3-3-3-|
  |-Strum-|

|----------|
|-4--------|
|-3--------|
|-1--------|
|-1--------|
|-1--------|
 |Upstroke|

Verse.)
|----------------------------------------------------------|
|----------------------------------------------------------|
|----------------------------------------------------------|
|----------------------------------------------------------|
|----------------------------------------------------------|
|-3-0-0-0---0-0-0---0-0-0---0-7-10-12-0-10-7-0-0-0---0-0-0-|

|------------------------------------------------------|
|--------------------------------------------------4---|
|--------------------------------------------------7---|
|------------------------------------------------------|
|--------------------------------------1-0-1---4-------|
|-0-7-10-12-0-10-0-7-0-0-0---0-0-0---0-1-0-1---4-------|

*repeated*
|----------------------------------------------------------|
|----------------------------------------------------------|
|----------------------------------------------------------|
|----------------------------------------------------------|
|----------------------------------------------------------|
|-3-0-0-0---0-0-0---0-0-0---0-7-10-12-0-10-7-0-0-0---0-0-0-|

|-----------------------------------------------------|
|--------------------------------------------------4--|
|--------------------------------------------------7--|
|-----------------------------------------------------|
|--------------------------------------1-0-1---4------|
|-0-7-10-12-0-10-0-7-0-0-0---0-0-0---0-1-0-1---4------|

Solo: Cole
|-------------------------------13----17-13-|
|-------------------------15-------15-------|
|-------------------14-------14-------------|
|-15-------------------15-------------------|
|----17-17-17-17-17-------------------------|
|-------------------------------------------|

|-17-13----17-13----17-13-17-15-13-17-15-13-17-13-|
|-------15-------15-------------------------------|
|-------------------------------------------------|
|-------------------------------------------------|
|-------------------------------------------------|
|-------------------------------------------------|
  T        T        T        T          T        T        T        T
|-22p17p13-17p13----------------------|------------------------h13-17p13h17|
|---------------h15-18p15-------------|---------------h15-18p15------------|
|------------------------h14-19p14----|------h14-19p14---------------------|
|---------------------------------h15-|-19p15------------------------------|
|-------------------------------------|------------------------------------|
|-------------------------------------|------------------------------------|

|-----5h8/11p8-------------11h14/17p14--------|
|---7----------10-------13--------------16----|
|-8---------------11/14--------------------17-|
|---------------------------------------------|
|---------------------------------------------|
|---------------------------------------------|

Solo: Evan
|-10----10-10----10-10------13----12-13----|
|-13b15----13b15----13b15------10-------10-|
|------------------------------------------|
|------------------------------------------|
|------------------------------------------|
|------------------------------------------|

|--------------------------------------------|
|-13-10-13/15--10-13-10-13/15----------------|
|-----------------------------12-10-12-14----|
|-----------------------------------------12-|
|--------------------------------------------|
|--------------------------------------------|

|----------------------------15-17-18-17h18p17-15-------|
|-------------------15-17-18----------------------18-17-|
|----------12-14-15-------------------------------------|
|-12-14-15----------------------------------------------|
|-------------------------------------------------------|
|-------------------------------------------------------|

|----------15-17-18----------17-18-20----------18-20-21-22~-|
|-15-17-18----------17-18-20----------18-20-22--------------|
|-----------------------------------------------------------|
|-----------------------------------------------------------|
|-----------------------------------------------------------|
|-----------------------------------------------------------|

Breakdown.)
|-------------------------------------------------------------------|
|-------------------------------------------------------------------|
|-------------------------------------------------------------------|
|-------------------------------------------------------------------|
|-5-----------0-0-0--0--0--0---0-0-0--0--0--0---0-0-0-0--0--0--0--0-|
|---0-0-0-0---0-0-0--0--0--0---0-0-0--0--0--0---0-0-0-0--0--0--0--0-|
PM            . . .  .  .  .   . . .  .  .  .   . . . .  .  .  .  .

|---------------------------------------------|
|---------------------------------------------|
|---------------------------------------------| “We just don’t
|---------------------------------------------|   give a…”
|-5-----------0-0-0--0--0--0---0-0-0--0--0--0-|
|---0-0-0-0---0-0-0--0--0--0---0-0-0--0--0--0-|
PM            . . .  .  .  .   . . .  .  .  .

|-------------------------------------------------------------------|
|-------------------------------------------------------------------|
|-------------------------------------------------------------------|
|-------------------------------------------------------------------|
|-5-----------0-0-0--0--0--0---0-0-0--0--0--0---0-0-0-0--0--0--0--0-|
|---0-0-0-0---0-0-0--0--0--0---0-0-0--0--0--0---0-0-0-0--0--0--0--0-|
PM            . . .  .  .  .   . . .  .  .  .   . . . .  .  .  .  .

|--------------------------------------------------|
|--------------------------------------------------|
|--------------------------------------------------|
|--------------------------------------------------|
|-5-----------0-0-0--0--0--0------0--0--0--0--0--0-|
|---0-0-0-0---0-0-0--0--0--0------0--0--0--0--0--0-|
PM            . . .  .  .  .      .  .  .  .  .  .

[Halftime]
|-------------------------------------------------------------------|
|-------------------------------------------------------------------|
|-------------------------------------------------------------------|
|-------------------------------------------------------------------|
|-7-0-0-0-0---0-0-0--0--0--0---0-0-0--0--0--0---0-0-0-0--0--0--0--0-|
|---0-0-0-0---0-0-0--0--0--0---0-0-0--0--0--0---0-0-0-0--0--0--0--0-|
PM  . . . .   . . .  .  .  .   . . .  .  .  .   . . . .  .  .  .  .

|---------------------------------------------------|
|---------------------------------------------------|
|---------------------------------------------------|
|---------------------------------------------------|
|-12-----------0-0-0--0--0--0------0--0--0--0--0--0-|
|----0-0-0-0---0-0-0--0--0--0------0--0--0--0--0--0-|
PM             . . .  .  .  .      .  .  .  .  .  .

PreChorus.)
|-----------|
|-----------|
|-----------|
|-----------|
|-3--3-4--4-|
|-3--3-4--4-|

Chorus.)
|------------------------------------------------------------------------|
|-8-------6--------------------------------------------------------------|
|-7-------5--------------------------------------------------------------|
|-5-------3--------------------------------------------------------------|
|-5-------3--------------------------------------------------------------|
|-5-------3------8--8--8-8---3--3-3-3--3-3-3-8--8--8-8---3--3-3-3--3-3-3-|
  |-Strum-|

|------------------------------------------------------------------------|
|-8-------6--------------------------------------------------------------|
|-7-------5--------------------------------------------------------------|
|-5-------3--------------------------------------------------------------|
|-5-------3--------------------------------------------------------------|
|-5-------3------8--8--8-8---3--3-3-3--3-3-3-8--8--8-8---3--3-3-3--3-3-3-|
  |-Strum-|

Outro.)
|---------3h6p3-----------|---------5h8p5---------|
|-------4-------4---------|-------6-------6-------|
|-----3-----------3-------|-----5-----------5-----|
|---5---------------5---5-|---7---------------7---|
|-6-------------------6---|-8-------------------8-|
|-------------------------|-----------------------|

|----------6h10p6-------6h10p6--------|
|--------8--------8---8---------8-----|
|------7------------7-------------7---|
|----8------------------------------8-|
|-10----------------------------------|
|-------------------------------------|

|-------------13h17p13----------13h17p13----------|
|----------15----------15----15----------15-------|
|-------14----------------14----------------14----|
|----15----------------------------------------15-|
|-17----------------------------------------------|
|-------------------------------------------------|

|---------3h6p3-----------|---------5h8p5---------|
|-------4-------4---------|-------6-------6-------|
|-----3-----------3-------|-----5-----------5-----|
|---5---------------5---5-|---7---------------7---|
|-6-------------------6---|-8-------------------8-|
|-------------------------|-----------------------|

|----------6h10p6-------6h10p6--------|
|--------8--------8---8---------8-----|
|------7------------7-------------7---|
|----8------------------------------8-|
|-10----------------------------------|
|-------------------------------------|

|-------------------||
|-------------------||
|-------------------||
|-------------8~~---||
|-0---0---0-------0-||
|-0---0---0-------0-||
PM.   .   .       .
comments
We did not receive enough feedback on this tab! Please rate:
1 2 3 4 5
I want to post or [tab]
guest
You may want to rate the tab now too:
select rating
Please do not post tabs as comments. Select "correction" instead!