Oops, an error
Loading. Please wait.

White Dice - Good Enough Bass Tab

72 views 3 this week
no commentswrite comment
1 2 3 4 5
please rate
add to favorites launch autoscroll
font size
0
reset
Autoscroll
+/-
esc
set tempo
stop
Contributor
Difficulty
Tuning
intermediate
D# G# C# F# A# D#
WARNING: You are trying to view
                                    content from Ultimate-Guitar.com
                                    in an unauthorized application,
                                    which is prohibited.

                                    Please use an official Ultimate
                                    Guitar Tabs application for iPhone,
                                    iPad or Android to access legitimate
                                    chords, guitar, bass, and drum tabs
                                    from Ultimate-Guitar.com database.

                                    Type "ultimate guitar tabs" in Apple
                                    App Store's or Android Market's
                                    search to find the application.
Hello again, todays tab is the first track from White Dice's second album "Better Than
again this band play half a step down, but it is possible to play this song without
down from stndard tuning, by just changing one note(just remember to take everything 
one fret/half a step, and il explain the octive change latter). The song should have a bit of
rock feel, and has a handy drum intro to help count you in. hope you enjoy :D


Intro and chorus:

This is a straigh forward piece with the stops needing to sound "bounce", so after you
played the stop note slightly pull off it to dampen it.
                                                   (the stops.....)
D#  3-3-3-3-3-3-3-3-1-1-1-1-1-1-1-1----------------(3---3---3---3-)-|
G#  --------------------------------3-3-3-3-3-3-3-3-----------------|
C#  ----------------------------------------------------------------|
F#  ----------------------------------------------------------------|

Verse:

This part of the song you have got to get the rythem of the second part right, and
to slide from 3 to 10  and then again 15 to 10 in the first section (the slides are indicated
a backslash i.e. \) and we are still doing the stops as in all prevease parts of the 
but the note has been moved up an octive to fret 10 on the G# string.

D#  -----------------------------------------|
G#  -10-10-10-10-10-10-10-10-8-8-8-8-8-8-8-8-|
C#  -----------------------------------------|
F#  -----------------------------------------|

D#  -----------------------------------------|
G#  -3-3-3-3-3-3-3-3\10---10---10---10---10--|
C#  -----------------------------------------|
F#  -----------------------------------------|

D#  -----------------------------------------|
G#  -10-10-10-10-10-10-10-10-8-8-8-8-8-8-8-8-|
C#  -----------------------------------------|
F#  -----------------------------------------|

D#  ------------------------------------------------|
G#  -15-15-15-15-15-15-15-15\10---10---10---10---10-|
C#  ------------------------------------------------|
F#  ------------------------------------------------|

Section 2 of the Verse: to play this section, use your 1st finger for 10 and keep you
finger on the 12, then keep that shape all the way down.
This section is also used for the end, but in sted of playing the last note i have
brackets for the final note at the very end of the song.

D#  ------------------------------------------------------------|
G#  -10-10----10-10----10----8-8----8-8----8----3-3---3-3---3---|
C#  -------12-------12----12-----10-----10---10-----5-----5---5-|
F#  ------------------------------------------------------------|


D#  -------------------------|
G#  -10-10----10-10----10----|
C#  -------12-------12----12-|
F#  -------------------------|


D#  ------------------------------------------------------------|
G#  -10-10----10-10----10----8-8----8-8----8----3-3---3-3---3---|
C#  -------12-------12----12-----10-----10---10-----5-----5---5-|
F#  ------------------------------------------------------------|

D#  ---------------------(3)-|
G#  -10-10-10-10-10-10-10-10-|
C#  -------------------------|
F#  -------------------------|

The only other part of this song is a little bass run at the brake down, this is where
octaive i was telling you about at the start of this tab comes in, the last but one note
played by the open G# string, if you are in standard tuning, just replace it with the 
fret on the top E string, so you will get the same note. (in essence this part is the
as the start but the second time around of playing, you insert a little run which helps 
to stop early, as the song does)

D#  3-3-3-3-3-3-3-3-1-1-1-1-1-1-1-1-----------------3---3---3---3---|
G#  --------------------------------3-3-3-3-3-3-3-3-----------------|
C#  ----------------------------------------------------------------|
F#  ----------------------------------------------------------------|

D#  3-3-3-3-3-3-3-3-1-1-1-1-1-1-1-1---------------3-----------------|
G#  --------------------------------3-3-3-3-1--0--------------------|
C#  ----------------------------------------------------------------|
F#  ----------------------------------------------------------------|

I hope this helps, any problems or coments please email me Yipme@hotmail.co.uk

Enjoy :D
comments
We did not receive enough feedback on this tab! Please rate:
1 2 3 4 5
I want to post or [tab]
guest
You may want to rate the tab now too:
select rating
Please do not post tabs as comments. Select "correction" instead!