Oops, an error
Loading. Please wait.

With Life In Mind - Godless Complex Bass Tab

742 views 1 this week
no commentswrite comment
1 2 3 4 5
please rate
add to favorites launch autoscroll
font size
0
reset
Autoscroll
+/-
esc
set tempo
stop
Contributor
Difficulty
Tuning
intermediate
C G C F A D
WARNING: You are trying to view
                                    content from Ultimate-Guitar.com
                                    in an unauthorized application,
                                    which is prohibited.

                                    Please use an official Ultimate
                                    Guitar Tabs application for iPhone,
                                    iPad or Android to access legitimate
                                    chords, guitar, bass, and drum tabs
                                    from Ultimate-Guitar.com database.

                                    Type "ultimate guitar tabs" in Apple
                                    App Store's or Android Market's
                                    search to find the application.
Godless Complex

Bass Tabs
                                               
F  :----------------|----------------|5-7-5-7-9-------|----------------|
C  :----------------|----------------|----------------|----------------|
G  :----------------|----------------|----------5-5-5-|5-5-5-5-5-5-5-5-|
C  :----------------|8-8-8-8-8-8-8-8-|----------------|----------------|

                                                                       
F  :----------------|----------------|----------------|----------------|
C  :----------------|----------------|----------------|----------------|
G  :5-5-5-5-5-5-5-5-|5-5-5-5-5-5-5-5-|1-1-1-3-3-3-3-3-|5-5-5-5-5-5-5-5-|
C  :----------------|----------------|----------------|----------------|

                                                      
F  :----------------|----------------|----------------|
C  :----------------|----------------|----------------|
G  :5-5-5-5-5-5-5-5-|5-5-5-5-5-5-5-5-|8-8-8-3-3-3-3-3-|
C  :----------------|----------------|----------------|

                                                                      
F  :----*-------------*--|----------------------|---------------------|
C  :---------------------|-------------------*--|----*----------------|
G  :5-5---5-5-5-5-5-5--5-|-5-5-5-5-5-5-5-5-5----|5-5---5-5-5-5-5-5--1-|
C  :---------------------|----------------------|---------------------|

                                                                 
F  :----------------|---------------------|----------------------|
C  :----------------|----*-------------*--|-------------------*--|
G  :1-1-1-1-3-3-3-3-|5-5---5-5-5-5-5-5--5-|-5-5-5-5-5-5-5-5-5----|
C  :----------------|---------------------|----------------------|

                                                           
F  :---------------------|----------------|----------------|
C  :----*-------------*--|----------------|----------------|
G  :5-5---5-5-5-5-5-5--1-|1-1-1-1-3-3-3-3-|3---------------|
C  :---------------------|----------------|----------------|

                                                                        
F  :----------------|----------------|--------7---10---|----------------|
C  :----------------|----------------|------5---5------|----------------|
G  :5-5-5-5-5-5-5-5-|5-5-5-5-5-5-5-5-|5-5-5----------1-|1-1-1-3-3-3-3-3-|
C  :----------------|----------------|-----------------|----------------|

                                                                       
F  :----------------|----------------|----------------|----------------|
C  :----------------|----------------|----------------|----------------|
G  :5-5-5-5-5-5-5-5-|5-5-5-5-5-5-5-5-|5-5-5-5-5-5-5-8-|8-8-8-3-3-3-3-3-|
C  :----------------|----------------|----------------|----------------|

                                                               
F  :--------------------|------------------|-------------------|
C  :--------------------|------------------|-------------------|
G  :5-5-5*-5-5-5-5*-5*--|5-5-5-5-5-5-5-5*5*|5*----5-5-5-5*-5*--|
C  :--------------------|------------------|-------------------|

                                                            
F  :----------------|--------------------|------------------|
C  :----------------|--------------------|------------------|
G  :1-1-1-3-3-3-3-3-|5*5-5*-5-5-5-5*-5*--|5-5-5-5-5-5-5-5*5*|
C  :----------------|--------------------|------------------|

                                                                        
F  :-------------------|----------------|-------------------------------|
C  :-------------------|----------------|-------------------------------|
G  :5*----5-5-5-5*-5*--|8-8-8-3-3-3-3-3-|5-5-5-5-5-5-5-5-5-5-5-5-5-5-5-5|
C  :-------------------|----------------|-------------------------------|

                                                                         
F  :----------------------------|----------------|-----------------------|
C  :----------------------------|----------------|-----------------------|
G  :5-5-5-5-5-5-5-5-------------|----------------|-----------------------|
C  :----------------8-8-8-8-8---|0---------------|--0-0-0*0*0-0-0-0-0-0*-|

                                                                         
F  :----------------------|-----------------------|----------------------|
C  :----------------------|-----------------------|----------------------|
G  :----------------------|-----------------------|----------------------|
C  :0-0*0-0*0-0*-0-0-0-0*-|--0-0-0*0*0-0-0-0-0-0*-|0-0*0-0*0-0*-0-0-0-0*-|

                                                                         
F  :-----------------------|----------------------|----------------------|
C  :-----------------------|----------------------|----------------------|
G  :-----------------------|----------------------|----------------------|
C  :--0-0-0*0*0-0-0-0-0-0*-|0-0*0-0*0-0*-0-0-0-0*-|--0-0-0*0*0-0-0-0-0*--|

                                                           
F  :----------------------|--------------------------------|
C  :----------------------|7-0-0-0-8-0-0-0-10-0-0-0-8-0-0-0|
G  :----------------------|--------------------------------|
C  :0-0*0-0*0-0*-0-0-0-0*-|--------------------------------|

                                                                          
F  :-----------------------|-----------------------|----------------------|
C  :---------------------0-|8-0-12-0-10-10-8-8-7*--|----------------------|
G  :-----------------------|-----------------------|----------------------|
C  :0-0*0-0*0-0*-0-0-0-0---|-----------------------|0-0*0-0*0-0*-0-0-0-0*-|

                                                               
F  :-----------------------------------|-----------------------|
C  :12-12-10-10-8-8-7-7-5-5-0-0-8-8-8-8|-----------------------|
G  :-----------------------------------|-----------------------|
C  :-----------------------------------|0-0*0-0*0-0*0-0*0-0-0-0|

                                                                         
F  :----------------|----------------|----------------|------------------|
C  :----------------|----------------|----------------|--------5-0-7---2-|
G  :----------------|1-1-1-1-1-1-1-1-|3-3-3-3-3-3-3-3-|------------------|
C  :0-----------0*--|----------------|----------------|0-0-0-0-------0---|

                                                              
F  :--------------------|----------------|--------------------|
C  :3-3-3-3-3-3-3-5-7-5-|----------------|--------5-7-5-------|
G  :--------------------|--5-5-5-5-5-5-5-|5-5-5-5-------8-8---|
C  :--------------------|----------------|------------------0-|

                                                            
F  :----------------|----------------------|----------------|
C  :----------------|----------------------|----------------|
G  :----3-3-3-3-3-3-|3-3-3-5-5-5-8-8-8-8-8-|--------------7-|
C  :--0-------------|----------------------|----------------|

                                                                       
F  :----------------|----------------|----------------|----------------|
C  :----------------|----------------|--------0-2-0---|----------------|
G  :----------------|----0-0-0-0-0-0-|0-0-0-0-------1-|--1-1-1-1-1-1-1-|
C  :--------------0-|--0-------------|----------------|----------------|

                                                                         
F  :------------------|----------------|----------------|----------------|
C  :--5---3---3-5-7---|----------------|--------0-2-0---|----------------|
G  :3---3---3---------|----0-0-0-0-0-0-|0-0-0-0-------1-|--1-1-1-1-1-1-1-|
C  :----------------0-|--0-------------|----------------|----------------|

                                                                         
F  :------------------|----------------|----------------|----------------|
C  :--5---3---3-5-7---|----------------|--------0-2-0---|----------------|
G  :3---3---3---------|----0-0-0-0-0-0-|0-0-0-0-------1-|--1-1-1-1-1-1-1-|
C  :----------------0-|--0-------------|----------------|----------------|

                                                                         
F  :------------------|----------------|----------------|----------------|
C  :--5---3---3-5-7---|----------------|--------0-2-0---|----------------|
G  :3---3---3---------|----0-0-0-0-0-0-|0-0-0-0-------1-|--1-1-1-1-1-1-1-|
C  :----------------0-|--0-------------|----------------|----------------|

                                                                     
F  :------------------|----------------------|-----------------------|
C  :--5---3---3-5-7---|----------------------|-----------------------|
G  :3---3---3---------|-------*---*--------*-|---------*-----------*-|
C  :------------------|0-0-0-0-0-0--0-0-0-0--|--0-0-0*0-0-0-0-0-0-0--|

                                                                         
F  :----------------------|-----------------------|----------------------|
C  :----------------------|-----------------------|----------------------|
G  :---*---*---*--------*-|---------*-----------*-|---*---*---*--------*-|
C  :0-0-0-0-0-0--0-0-0-0--|--0-0-0*0-0-0-0-0-0-0--|0-0-0-0-0-0--0-0-0-0--|

                                                                        
F  :-----------------------|---------------------|----------------------|
C  :-----------------------|---------------------|----------------------|
G  :---------*-----------*-|---*---*---*-------*-|---------*---------*--|
C  :--0-0-0*0-0-0-0-0-0-0--|0-0-0-0-0-0-0-0*0-0--|--0-0-0*0-0-0-0-0-0---|

                                                                        
F  :---------------------|-----------------------|----------------------|
C  :---------------------|-----------------------|----------------------|
G  :---*---*---*------**-|---------*-----------*-|---*---*---*--------*-|
C  :0-0-0-0-0-0--0-0-0---|--0-0-0*0-0-0-0-0-0-0--|0-0-0-0-0-0--0-0-0-0--|

                                                                          
F  :-----------------------|----------------------|-----------------------|
C  :-----------------------|----------------------|-----------------------|
G  :---------*-----------*-|---*---*---*--------*-|---------*-----------*-|
C  :--0-0-0*0-0-0-0-0-0-0--|0-0-0-0-0-0--0-0-0-0--|--0-0-0*0-0-0-0-0-0-0--|

                                                                      
F  :----------------------|-----------------------|-------------------|
C  :----------------------|-----------------------|--------7-0-10---5-|
G  :---*---*---*----------|-----------5-5-5-5-5---|-------------------|
C  :0-0-0-0-0-0--0-0-0-0*-|--0-0-0-0*-------------|0-0-0-0--------0---|

                                                                    
F  :-------------------|---------------------|----------------------|
C  :7-8---8-10-12-10-7-|--------12-0-10-12-7-|------8-10-0-12-14-15-|
G  :-------------------|---------------------|----------------------|
C  :----0--------------|8-8-8-8--------------|7-7-7-----------------|

                                                                 
F  :-------------------|-------------------|---------------------|
C  :--------7-0-10---5-|7-8---8-10-12-10-7-|--------12-0-10-12-7-|
G  :-------------------|-------------------|---------------------|
C  :0-0-0-0--------0---|----0--------------|8-8-8-8--------------|

                                                                  
F  :----------------------|-------------------|-------------------|
C  :------8-10-0-12-14-15-|--------7-0-10---5-|7-8---8-10-12-10-7-|
G  :----------------------|-------------------|-------------------|
C  :7-7-7-----------------|0-0-0-0--------0---|----0--------------|

                                                                    
F  :---------------------|----------------------|-------------------|
C  :--------12-0-10-12-7-|------8-10-0-12-14-15-|--------7-0-10---5-|
G  :8--------------------|----------------------|-------------------|
C  :8-8-8-8--------------|7-7-7-----------------|0-0-0-0--------0---|

                                                                  
F  :-------------------|---------------------|--------------------|
C  :7-8---8-10-12-10-7-|--------12-0-10-12-7-|--------------------|
G  :-------------------|---------------------|--------------------|
C  :----0--------------|8-8-8-8--------------|7-7-7-7-7-----------|

                                                              
F  :----------------|----------------|------------------------|
C  :----------------|----------------|------------------------|
G  :----------------|----------------|------------------------|
C  :8-8-8-8-8-8-8-8-|8-8-8-8-8-8-8-8-|12-12-12-12-12-12-12-12-|

                                                     
F  :------------------------|------------------------|
C  :------------------------|------------------------|
G  :------------------------|------------------------|
C  :12-12-12-12-12-12-12-12-|10-10-10-10-10-10-10-10-|

                                                     
F  :------------------------|------------------------|
C  :------------------------|------------------------|
G  :------------------------|------------------------|
C  :10-10-10-10-10-10-10-10-|10-10-10-10-10-10-10-10-|

                                                              
F  :------------------------|----------------|----------------|
C  :------------------------|----------------|----------------|
G  :------------------------|----------------|----------------|
C  :10-10-10-10-10-10-10-10-|8-8-8-8-8-8-8-8-|8-8-8-8-8-8-8-8-|

                                                     
F  :------------------------|------------------------|
C  :------------------------|------------------------|
G  :------------------------|------------------------|
C  :12-12-12-12-12-12-12-12-|12-12-12-12-12-12-12-12-|

                                                     
F  :------------------------|------------------------|
C  :------------------------|------------------------|
G  :------------------------|------------------------|
C  :10-10-10-10-10-10-10-10-|10-10-10-10-10-10-10-10-|

                                                                      
F  :------------------------|------------------------|----------------|
C  :------------------------|------------------------|----------------|
G  :------------------------|------------------------|----------------|
C  :10-10-10-10-10-10-10-10-|10-10-10-10-10-10-10-10-|8-8-8-8-8-8-8-8-|

                                                                      
F  :----------------|------------------------|------------------------|
C  :----------------|------------------------|------------------------|
G  :----------------|------------------------|------------------------|
C  :8-8-8-8-8-8-8-8-|12-12-12-12-12-12-12-12-|12-12-12-12-12-12-12-12-|

                                                     
F  :------------------------|------------------------|
C  :------------------------|------------------------|
G  :------------------------|------------------------|
C  :10-10-10-10-10-10-10-10-|10-10-10-10-10-10-10-10-|

                                                                      
F  :------------------------|------------------------|----------------|
C  :------------------------|------------------------|----------------|
G  :------------------------|------------------------|----------------|
C  :10-10-10-10-10-10-10-10-|10-10-10-10-10-10-10-10-|8-8-8-8-8-8-8-8-|

                                                                      
F  :----------------|------------------------|------------------------|
C  :----------------|------------------------|------------------------|
G  :----------------|------------------------|------------------------|
C  :8-8-8-8-8-8-8-8-|12-12-12-12-12-12-12-12-|12-12-12-12-12-12-12-12-|

                                                     
F  :------------------------|------------------------|
C  :------------------------|------------------------|
G  :------------------------|------------------------|
C  :10-10-10-10-10-10-10-10-|10-10-10-10-10-10-10-10-|

                                                                      
F  :------------------------|------------------------|----------------|
C  :------------------------|------------------------|----------------|
G  :------------------------|------------------------|----------------|
C  :10-10-10-10-10-10-10-10-|10-10-10-10-10-10-10-10-|8-8-8-8-8-8-8-8-|

                                                                      
F  :----------------|------------------------|------------------------|
C  :----------------|------------------------|------------------------|
G  :----------------|------------------------|------------------------|
C  :8-8-8-8-8-8-8-8-|12-12-12-12-12-12-12-12-|12-12-12-12-12-12-12-12-|

                                                     
F  :------------------------|------------------------|
C  :------------------------|------------------------|
G  :------------------------|------------------------|
C  :10-10-10-10-10-10-10-10-|10-10-10-10-10-10-10-10-|

                                                                      
F  :------------------------|------------------------|----------------|
C  :------------------------|------------------------|----------------|
G  :------------------------|------------------------|----------------|
C  :10-10-10-10-10-10-10-10-|10-10-10-10-10-10-10-10-|8-8-8-8-8-8-8-8-|

                                                                      
F  :----------------|------------------------|------------------------|
C  :----------------|------------------------|------------------------|
G  :----------------|------------------------|------------------------|
C  :8-8-8-8-8-8-8-8-|12-12-12-12-12-12-12-12-|12-12-12-12-12-12-12-12-|

                                                     
F  :------------------------|------------------------|
C  :------------------------|------------------------|
G  :------------------------|------------------------|
C  :10-10-10-10-10-10-10-10-|10-10-10-10-10-10-10-10-|

                                                                      
F  :------------------------|------------------------|----------------|
C  :------------------------|------------------------|----------------|
G  :------------------------|------------------------|----------------|
C  :10-10-10-10-10-10-10-10-|10-10-10-10-10-10-10-10-|8-8-8-8-8-8-8-8-|

                                                                      
F  :----------------|------------------------|------------------------|
C  :----------------|------------------------|------------------------|
G  :----------------|------------------------|------------------------|
C  :8-8-8-8-8-8-8-8-|12-12-12-12-12-12-12-12-|12-12-12-12-12-12-12-12-|

                                                     
F  :------------------------|------------------------|
C  :------------------------|------------------------|
G  :------------------------|------------------------|
C  :10-10-10-10-10-10-10-10-|10-10-10-10-10-10-10-10-|

                                                                      
F  :------------------------|------------------------|----------------|
C  :------------------------|------------------------|----------------|
G  :------------------------|------------------------|----------------|
C  :10-10-10-10-10-10-10-10-|10-10-10-10-10-10-10-10-|----------------|
comments
We did not receive enough feedback on this tab! Please rate:
1 2 3 4 5
I want to post or [tab]
guest
You may want to rate the tab now too:
select rating
Please do not post tabs as comments. Select "correction" instead!