Oops, an error
Loading. Please wait.

All Wwf Entrances Theme Tab

5,507 views 6 this week
17 commentsread comments
1 2 3 4 5
not so good
x 7
add to favorites launch autoscroll
font size
0
reset
Autoscroll
+/-
esc
set tempo
stop
WARNING: You are trying to view
                                    content from Ultimate-Guitar.com
                                    in an unauthorized application,
                                    which is prohibited.

                                    Please use an official Ultimate
                                    Guitar Tabs application for iPhone,
                                    iPad or Android to access legitimate
                                    chords, guitar, bass, and drum tabs
                                    from Ultimate-Guitar.com database.

                                    Type "ultimate guitar tabs" in Apple
                                    App Store's or Android Market's
                                    search to find the application.
These Should all be very accurate!!! (Not all the tabs, but almost!)
This first tab is really messed up-sorry Just copy it to a blank document and re-size
and it should be legible-The rest of them should be okay though

C R E E D
YOUNG GROW OLD




Drop D Tuning (low to high) D A D G B E
With Distortion

Intro
|-------------------------------------------------------------------------------|e
|-------------------------------------------------------------------------------|B
|-------------------------------------------------------------------------------|G
|-----------------------------------------13-12-12-----13-12--12-----13-13-13-13|D
|-1--0---0---0--1--0--0---0--1--0--0--0---xx-xx-xx-----xx-xx--xx-----xx-xx-xx-xx|A
|-1--0---0---0--1--0--0---0--1--0--0--0---13-12-12--0--13-12--12--0--13-13-13-13|E

|-------------------------------------------------------------------------------|e
|-------------------------------------------------------------------------------|B
|-------------------------------------------------------------------------------|G
|-0--0-0--12-12--0-0---0--14-15-17--17--0--10-12-14--14--0--9-10-12--------3--0-|D
|-0--0-0--xx-xx--0-0---0--xx-xx-xx--xx--0--xx-xx-xx--xx--0--x-xx-xx--------3--0-|A
|-0--0-0--12-12--0-0---0--14-15-17--17--0--10-12-14--14--0--9-10-12--0--0--3--0-|E

|-----------------------------------------------------------------------------|e
|---------------------------------------------------------------------------3-|B
|---------------------------------------------------------------------------2-|G
|-12-12--0-0---0--14-15-17--17--0--10-12-14--14--0--9-10-12-----------3--0--0-|D
|-xx-xx--0-0---0--xx-xx-xx--xx--0--xx-xx-xx--xx--0--x-xx-xx-----------3--0--0-|A
|-12-12--0-0---0--14-15-17--17--0--10-12-14--14--0--9-10-12---0---0---3--0--0-|E

|----------------|e
|----------------|B
|----------------|G
|----------3-----|D
|----------3-----|A
|-0--0--0--3---0-|E

He Said he's Fall - ing to piec - es, fight - ing the boy and the man over his...
|-------------------------------------------------------------------------------|e
|-3--1-1--1--1-1-3--(3)-1--3--1-1-1-(1)--1-1------3--1-1-1--(1)-1-1--(1)-1-3-3-1|B
|--------------------------------------------2-(2)------------------------------|G
|-------------------------------------------------------------------------------|D
|-------------------------------------------------------------------------------|A
|-------------------------------------------------------------------------------|E

But Con-scious-ness has tied his hands.
|-----------------------------------|e
|-1--3-1-1--(1)-1-1--(1)-1----------|B
|--------------------------2-(2)----|G
|-----------------------------------|D
|-----------------------------------|A
|-----------------------------------|E

Pre-Chorus - No Vocals This part played only the first time
|------------------------------------------------------------|e
|------------------------------------------------------------|B
|------------------------------------------------------------|G
|-10--10--10-12--9---9-9--9-10--9--8-------------------------|D
|-10--10--10-12--9---9-9--9-10--9--8-------------------------|A
|-10--10--10-12--9---9-9--9-10--9--8----0-(picked-rapidly)---|E

This Part still first time, but also end of 2nd time through
|-------------------------------------------------------------------------------|e
|---------------------------------------16-15-15--15-16-15--15-15-16-15-15-15-15|B
|---------------------------------------xx-xx-xx--xx-xx-xx--xx-xx-xx-xx-xx-xx-xx|G
|-13-12--12---12-13-12---12--12-13-12---13-12-12--12-13-12--12-15-13-12-12-15-15|D
|-xx-xx--xx---xx-xx-xx---xx--xx-xx-xx-------------------------------------------|A
|-13-12--12---12-12-12---12--12-13-12-------------------------------------------|E

Pre-chorus 2nd Time Through Only (Followed By Part Above)
|-----------------------------|e
|-----------------------------|B
|-----------------------------|G
|-----------------------------|D
|-1--0-0--0-1-0--0--0-1-0-0-0-|A
|-1--0-0--0-1-0--0--0-1-0-0-0-|E


Chorus
So Far  in the dis-tant land, there's a fight, be-tween boy and man
|-1--1--(1)-1-1-3--(3)-1-0--------1----------------------------|e
|--------------------------3-(3)----3-3--(3)-3-3-1-(1)--3--3-1-|B
|--------------------------------------------------------------|G
|--------------------------------------------------------------|D
|--------------------------------------------------------------|A
|--------------------------------------------------------------|E

See The Light Through The O-pen Door  Sit And Watch as the young grow old
|-1-1-1--(1)-1-1-3--(3)-1-0-----------1-----------------------------|e
|---------------------------3-(3)-1-----3-3--(3)-3-1-1--(1)--3--3-1-|B
|-------------------------------------------------------------------|G
|-------------------------------------------------------------------|D
|-------------------------------------------------------------------|A
|-------------------------------------------------------------------|E

Guitars 1 & 2 - No Vocals
|------------------------------------------------------------------------------|e
|-------3---------------------3------------------------------------------------|B
|-------2---------------------2------------------------------------------------|G
|-3--0--0-----------3-0--3-0--0---------------------8---------7-----5--------4-|D
|-3--0--0---------------------0---------------------10--------9-----7--------5-|A
|-3--0--0----0-0-0------------0----0-0-0-3---0-0-0------0-0-0-----0----0-0-0---|E

This Part stops here on first time through - second time adds line in blue
|-------------------------------------------------------------------------------|e
|-------------------------------------------------------------------------------|B
|-------------------------------------------------------------------------------|G
|-------4------------8--------7---5-4-------4--------4------------4--------4----|D
|-------5-----------------------------------5--------5------------5--------5----|A
|-0-0-0----0---0-0-0----0-0-0---0-----0-0-0----0-0-0----0---0-0-0----0-0-0----0-|E

Return to beginning for Verse 2
Repeat Chorus included blue stuff above
then add below

Young but o-ver blown  so young but o-ver blown Repeat 2x
|-------------------------------------------------1------|e
|-------------------------------------3--(3)-3-1----3--3-|B
|-2-2--(2)-0-(0)--0----0---------2--2--------------------|G
|--------------------3---3-(3)---------------------------|D
|--------------------------------------------------------|A
|--------------------------------------------------------|E

Add this on end of 2nd time
|-1-3-1--(1)-3-1--3-1-3--1-0-|e
|----------------------------|B
|----------------------------|G
|----------------------------|D
|----------------------------|A
|----------------------------|E

Take a look now, see the boy is weak-ened  watch him fade, watch him fade away
|1-3-1--(1)-1--3-1-3--5-3-1--1-----------------------------1--------------------|e
|------------------------------3-3--(3)-3-1--1-1--1-3-1--3---3-3--(1)-1--1-1-3-1|B
|-------------------------------------------------------------------------------|G
|-------------------------------------------------------------------------------|D
|-------------------------------------------------------------------------------|A
|-------------------------------------------------------------------------------|E

No Vocals - Guitar 1 only (Part Before Last Chorus/Outro)
|-------------------------------------------------------|e
|-------------------------------------------------------|B
|-7-----------------------0-----------------------------|G
|-x-------0----------0-3-----3--------2--2--2------0----|D
|-5-----------------------------0-0-3----------0-2------|A
|------0-----0----0-----------------------------------3-|E

Guitar 1 & 2 (Still no Vocals)
|------------------------------------------------------|e
|------------------------------------------------------|B
|--------------------------0---------------------------|G
|-----------0---------0-3----3--------2-2-2-------0----|D
|------------------------------0-0-3---------0-2-------|A
|-3--(3)-0-----0--0----------------------------------3-|E

Repeat Chorus

Outro
|-----------------------------------------------------------------|e
|-----------------------------------------------------------------|B
|-----------------------------------------------------------------|G
|-------------------------------13-12--12--12-13-12--12--12-13-12-|D
|-1-0--0---0-1-0--0--0-1-0-0-0--xx-xx--xx--xx-xx-xx--xx--xx-xx-xx-|A
|-1-0--0---0-1-0--0--0-1-0-0-0--13-12--12--12-13-12--12--12-13-12-|E

|-------------------------------------------------------------------------------|e
|-16-15--15---15-16-15--15--15-16-15-15-15--16-15-15--15-16-15--15--15-16-15-15-|B
|-xx-xx--xx---xx-xx-xx--xx--xx-xx-xx-xx-xx--xx-xx-xx--xx-xx-xx--xx--xx-xx-xx-xx-|G
|-13-12--12---12-13-12--12--12-13-12-12-12--13-12-12--12-13-12--12--12-13-12-12-|D
|-------------------------------------------------------------------------------|A
|-------------------------------------------------------------------------------|E

|---------------|e
|-15------------|B
|-xx------------|G
|-12--0---------|D
|-----0---------|A
|-----0---------|E



TRIPLE H




Drowning Pool - The Game
Drop D Tuning (Down 1 and a half Steps) (low to high) B  F#  B  E  G#  C#

Intro
|---------------------------------------------------|e
|---------------------------------------------------|B
|-----6-6-4-4-----4-4----------6-6-4-4-----4--4-----|G
|-4-4---------5-5-----5-5--4-4---------5-5--5---5---|D
|---------------------------------------------------|A
|---------------------------------------------------|E

Intro (Cont.) (Followed By 2 Line Break)
|----------------------------------------------|e
|----------------------------------------------|B
|-----6-6-4-4------4------------6--6--4--------|G
|-4-4---------5--5---5-5-5--4-4----------------|D
|----------------------------------------------|A
|----------------------------------------------|E

It's All About The Game, You Fall Like The Rest Your Failure...
|----------------------------------------------------------------|e
|----------------------------------------------------------------|B
|--------------------------2--------2-(2)-2-2--------------------|G
|-2-3-2-3-2-3-2-3-(3)-3-2-----3-3-3-----------3-2-2--3-2-2-2-3---|D
|----------------------------------------------------------------|A
|----------------------------------------------------------------|E

Will You Make It? I Will Deliver The Pain can you Take It
     3        3        3          3 
|-[7-5-5]--[5-5-5]--[5-5-5]--[5---5-(Sm-Rest)]-|e
|----------------------------------------------|B
|----------------------------------------------|G
|----------------------------------------------|D
|----------------------------------------------|A
|----------------------------------------------|E

I'm In Control I Am The Pain After This You Won't Be The Same
|---------------------------------------------------|e
|---------------------------------------------------|B
|-2-----------------2-----------2-(2)-2-2-----------|G
|---3-2-3-2-3-(3)-2-----3-2-3-2-----------3-2-------|D
|---------------------------------------------------|A
|---------------------------------------------------|E

This is my time I Make the rules-you mess with this and you die like a fool
                        3       3             3
|-------------------------5]-[5-5-5]--5-5--[5-5-5]--5-(5)-1~-|e
|------------------------------------------------------------|B
|-------------------2-[(2)-----------------------------------|G
|-3-3-2-3-2-3-(3)-2------------------------------------------|D
|------------------------------------------------------------|A
|------------------------------------------------------------|E

Chorus
Here Comes The Pain (Pain!) Here Comes The Pain (Pain!)
|-5-5-(5)-5-5-(5)-1~-----------------------|e
|------------------------------------------|B
|------------------------------------------|G
|---------------------(Play-3x)------------|D
|------------------------------------------|A
|------------------------------------------|E

Time To Play The Game  Huh!  Here Comes The Pain
|-7-5-7-(7)-7-5--------1~----0-1-(1)-5-1-(1)---|e
|----------------------------------------------|B
|----------------------------------------------|G
|----------------------------------------------|D
|----------------------------------------------|A
|----------------------------------------------|E

Interlude (No Vocals)
|----------------------------------------------------|e
|----------------------------------------------------|B
|-------6-4---4-------------6-4---4------------------|G
|-----------5---5-4-------------5--------------------|D
|-4-4-4--------------4-4-4-----------4-4-4---4-4-4---|A
|-4-4-4--------------4-4-4-----------4-4-4---4-4-4---|E

Interlude (Cont.)
|------------------------------------------------------|e
|------------------------------------------------------|B
|-------6-4---4------------6-4---4--------6-4---4-(4)--|G
|-----------5---5-4------------5--------------5--------|D
|-4-4-4-------------4-4-4-----------4-4-4--------------|A
|-4-4-4-------------4-4-4-----------4-4-4--------------|E

Nowhere To Run Nowhere To Hide now it's time to die  I Am The Pain...
|-1-1-0-1-0-1-(1)-0-5---1-1-5-(5)-5-1-0--1-1-0-1-0-1-0-1-(1)-0-5-|e
|----------------------------------------------------------------|B
|----------------------------------------------------------------|G
|----------------------------------------------------------------|D
|----------------------------------------------------------------|A
|----------------------------------------------------------------|E

You Won't Forget My Name
|-7-7-5-5-(5)-3-5-(5)-------|e
|---------------------------|B
|---------------------------|G
|---------------------------|D
|---------------------------|A
|---------------------------|E

Whispered: Time to feel the pain, time to feel the pain...
|--------------------------------------------------------------------|e
|--------------------------------------------------------------------|B
|--------------------------------------------------------------------|G
|--------------------------------------------------------------------|D
|--------------------------------------------------------------------|A
|-4-4-4-0-0-0-4-4-4-0-0-0-0-0-2-2-2--4-4-4-0-0-0-4-4-4-0-0-0-0-2-2-2-|E

Time to feel the pain, time to feel the pain GO!
|-------------------------------------------------------------|e
|-------------------------------------------------------------|B
|-------------------------------------------------------------|G
|-------------------------------------------------------------|D
|-------------------------------------------------------------|A
|-4-4-4-0-0-0-4-4-4-0-0-0-0-2-2-2--4-4-4-0-0-0-4-4-4-0-0-0-0--|E

Time to play the Game (Pain!) 
|----14-14----14-14----14-14----14-14----14----14-----------------|e
|-17-------17-------17-------17-------17----17-----17-14-17-14----|B
|--------------------------------------------------------------16-|G
|-----------------------------------------------------------------|D
|-----------------------------------------------------------------|A
|-----------------------------------------------------------------|E

Here Comes The Pain (Pain!) (Play 4x)
|-5-5-(5)-5-5-(3)-1~-------------------------|e
|--------------------------------------------|B
|--------------------------------------------|G
|--------------------------------------------|D
|--------------------------------------------|A
|--------------------------------------------|E

Time To Play The Game Pain Time To Play The Game Pain!
|-7-5-7-(7)-7-5-----1~----7-5-7-(7)-7-5-----1~-|e
|----------------------------------------------|B
|----------------------------------------------|G
|----------------------------------------------|D
|----------------------------------------------|A
|----------------------------------------------|E




STONE COLD
Steve Austin



Disturbed - Glass Shatters

Drop D Tuning (Down One Half Step) (low to high) Db Ab Db Gb Bb Eb 

Intro
Step up Cause You're the next one in line for the kill You don't believe
it but i'm betting that you will
|--------------------------------------------------------------------|e
|--------------------------------------------------------------------|B
|--------------------------------------------------------------------|G
|-0-0-(0)-0-0-0--0-0-0--0-0-0-0-(0)--0-0-0--0-0-0-0--0-0-0--(0)--0-0-|D
|--------------------------------------------------------------------|A
|--------------------------------------------------------------------|E

|----------------------------------------------|e
|----------------------------------------------|B
|----------------------------------------------|G
|----------------------------------------------|D
|-0-0--0--1--0-0--0-0--0-1--0-0----------------|A
|-0-0--0--1--0-0--0-0--0-1--0-0----------------|E

Stand up I'll Let you Live a little bit longer with the pain you know..
|-----------------------------------------------------------|e
|-----------------------------------------------------------|B
|-----------------------------------------------------------|G
|-0-0-(0)--0-0-0--0-0-0-0--0-0-0-0-(0)-0-0-0--0-0-0-0--0-0--|D
|-----------------------------------------------------------|A
|-----------------------------------------------------------|E

Step up cause you're the next one in line for the kill. You don't...
|-5-5-(5)---------0-0--0-0-0-0-----------------------1-(1)---1-|e
|---------------3--------------3-3-3-3--3-3-3-3--3-3-------3---|B
|---------2-2-2------------------------------------------------|G
|--------------------------------------------------------------|D
|--------------------------------------------------------------|A
|--------------------------------------------------------------|E


|-1--1--1--1----1--1--1--1---------------------------------------|e
|-1--1--1--1----1--1--1--1---------------------------------------|B
|----------------------------------------------------------------|G
|----------------------------------------------------------------|D
|---------------------------0-0-0--0-1--0-0--0--0-1--3-----------|A
|---------------------------0-0-0--0-1--0-0--0--0-1--3-(Play-2x)-|E


|----------------------------------------------|e
|----------------------------------------------|B
|----------Play-line-before-last---------------|G
|----------"step-up-cause-you're..."-----------|D
|----------------------------------------------|A
|----------------------------------------------|E

Stand up I'll Let you live a little bit longer with the pain...
|-5-5-(5)---------0-0-0--0-0-0-0-----------------------------------|e
|---------------0----------------3-3-3-3-(3)-1-1-1--1-1-1-1--1-1-3-|B
|---------2-2-2----------------------------------------------------|G
|------------------------------------------------------------------|D
|------------------------------------------------------------------|A
|------------------------------------------------------------------|E

I'm Breaking the limit inside you stop begging someone to hide you
|-5-5-(5)-5-3--3-3-3--5-5--5-5-(5)-5--3-(3)-3-3-5-5---|e
|-----------------------------------------------------|B
|-----------------------------------------------------|G
|-----------------------------------------------------|D
|-----------------------------------------------------|A
|-----------------------------------------------------|E


|----------------------------------------------------|e
|----------------------------------------------------|B
|----------------------------------------------------|G
|-6---6---6---6------6------6---6---6--6-------------|D
|---5---5---5---5--5---5-6----5---5--5---5--6---5----|A
|----------------------------------------------------|E


|--------------------------------------------------|e
|--------------------------------------------------|B
|--------------------------------------------------|G
|--------------------------------------------------|D
|--------------------------------------------------|A
|-6-0-6-0-6-0-6-0--0-6-0-1--6-0--6-0--6-0--6-0--1--|E


|----------------------------------------------|e
|----------------------------------------------|B
|-------Play-"I'm-Breaking-The-Limit..."-------|G
|------------------(2-Times)-------------------|D
|----------------------------------------------|A
|----------------------------------------------|E


|-----------------------------------------------|e
|-9---9---9---9-----9------9---9---9---9--------|B
|---7---7---7---7-7---7-8----7---7---7---7--8-7-|G
|-----------------------------------------------|D
|-----------------------------------------------|A
|-----------------------------------------------|E

I'm Breaking The Limit inside you Don't Run, Bring it straight to me!
|-5-5-(5)-5-3--3-3-3--5-5--5-5-(5)-5-5--3-3-3---3-3-3--|e
|------------------------------------------------------|B
|------------------------------------------------------|G
|------------------------------------------------------|D
|------------------------------------------------------|A
|------------------------------------------------------|E


|----------------------------------------|e
|----------------------------------------|B
|----------------------------------------|G
|----Repeat-Line-Before-Last-------------|D
|----------------------------------------|A
|----------------------------------------|E


|---------------------------------------------------|e
|---------------------------------------------------|B
|---------------------------------------------------|G
|-6---6---6---6------6------6---6---6---6-----------|D
|---5---5---5---5--5---5-6----5---5---5---5--3-3-3--|A
|--------------------------------------------3-3-3--|E


|----------------------------------------------------------|e
|----------------------------------------------------------|B
|----------------------------------------------------------|G
|----------------------------------------------------------|D
|--------------------------------------------------3-3-3---|A
|-6-0--6-0--6-0--6-0--0-6-0-1--6-0--6-0--6-0--6-0--3-3-3---|E


|-----------------------------------------------------------|e
|-10-10-10-10-10-10--10-10-10-10-10-10----------------------|B
|-10-10-10-10-10-10--12-10-10-10-10-10-(Play-2nd-Part-3x)---|G
|-10-10-10-10-10-10--10-10-10-10-10-10-(Play-all-2x)--------|D
|-----------------------------------------------------------|A
|-----------------------------------------------------------|E


|----------------------------------------------|e
|----------------------------------------------|B
|-----------Play-Intro-1x-(1st-2-Lines)--------|G
|----------------------------------------------|D
|----------------------------------------------|A
|----------------------------------------------|E


Step up cause you're the next one in line for the kill. You don't...
|-5-5-(5)---------0-0--0-0-0-0-----------------------1-(1)---1-|e
|---------------3--------------3-3-3-3--3-3-3-3--3-3-------3---|B
|---------2-2-2------------------------------------------------|G
|--------------------------------------------------------------|D
|--------------------------------------------------------------|A
|--------------------------------------------------------------|E


Stand up I'll Let you live a little bit longer with the pain...
|-5-5-(5)---------0-0-0--0-0-0-0-----------------------------------|e
|---------------0----------------3-3-3-3-(3)-1-1-1--1-1-1-1--1-1-3-|B
|---------2-2-2----------------------------------------------------|G
|------------------------------------------------------------------|D
|------------------------------------------------------------------|A
|------------------------------------------------------------------|E


I'm Breaking the limit inside you stop begging someone to hide you
|-5-5-(5)-5-3--3-3-3--5-5--5-5-(5)-5--3-(3)-3-3-5-5---|e
|-----------------------------------------------------|B
|-----------------------------------------------------|G
|-----------------------------------------------------|D
|-----------------------------------------------------|A
|-----------------------------------------------------|E


I'm Breaking The Limit inside you Don't Run, Bring it straight to me!
|-5-5-(5)-5-3--3-3-3--5-5--5-5-(5)-5-5--3-3-3---1-1-1--|e
|------------------------------------------------------|B
|------------------------------------------------------|G
|------------------------------------------------------|D
|------------------------------------------------------|A
|------------------------------------------------------|E



ROB VAN DAM
WHOLE   FUCKING   SHOW



Breaking Point - One Of A Kind
Drop D Tuning Down Half Step (Low To High- D A D G B E)

Intro (Guitar 3) (Riff A)
|----------------------------------------------------|e
|----------------------------------------------------|B
|----------------------------------------------------|G
|----------------------------------------------------|D
|----------------------------------------------------|A
|-0-5-5-5-5-5-5-5-5-5-5-5-0--6-6-6-6-6-0-3-3-3-3-3-0-|E

Guitar 1 & 2 (with guitar 3) (Riff A)
|--------------------------------------|e
|--------------------------------------|B
|--------------------------------------|G
|--------------------------------------|D
|-0--0---0---------------------------0-|A
|-0--0---0---------------------------0-|E


Guitar 3
|-------------------------------------------------------------------------------|e
|-------------------------------------------------------------------------------|B
|-------------------------------------------------------------------------------|G
|-------------------------------------------------------------------------------|D
|-------------------------------------------------------------------------------|A
|-5-5--5-5-5-5-5-5-5-5-5-0-6-6-6-6-6-0-3-3-3-3-3--0-5-5--5-5-5-5-5-5-5-5-5-5--0-|E

Guitar 1 & 2 (With Guitar 3)
|--------------------------------------------|e
|--------------------------------------------|B
|--------------------------------------------|G
|--------------------------------------------|D
|-0--0--------------0---0--0---------------0-|A
|-0--0--------------0---0--0---------------0-|E


Guitar 3
|---------------------------------------------------------------------------|e
|---------------------------------------------------------------------------|B
|---------------------------------------------------------------------------|G
|---------------------------------------------------------------------------|D
|---------------------------------------------------------------------------|A
|-6-6--6-6-6-0-3-3-3-3-3--0-5-5--5-5-5-5-5-5-5-5-5--0-6-6-6-6-6-0--3-3-3--3-|E

Guitars 1 & 2 (with Guitar 3)
|----------------------------------------------------------|e
|----------------------------------------------------------|B
|----------------------------------------------------------|G
|----------------------------------------------------------|D
|----0-0----0---0-0---0--0-0---0--0-0-0-0-0-0--6--5--4-----|A
|----0-0----0---0-0---0--0-0---0--0-0-0-0-0-0--6--5--4-----|E

Guitars 1 & 2
|------------------------------------------------------------------------|e
|---------------------------------7--7--7-10--7--7-10--7--7-10--10--9--8-|B
|---------------------------------7--7--7-10--7--7-10--7--7-10--10--9--8-|G
|---------------------------------7--7--7-10--7--7-10--7--7-10--10--9--8-|D
|-0-0-0--3--0-0-3--0-0-3--3-2--1-----------------------------------------|A
|-0-0-0--3--0-0-3--0-0-3--3-2--1-----------------------------------------|E

Verse 1
I've Got This Feeling Deep Inside But What It Is I Don't Know
|-1-1-1-3-1---------3-(3)-1----------1-3-1-3-(3)--3-(3)----------|e
|-----------3-(3)-3---------3-(3)-----------------------3-1--3-1-|B
|----------------------------------------------------------------|G
|----------------------------------------------------------------|D
|----------------------------------------------------------------|A
|----------------------------------------------------------------|E

My Engine Starts To Change My Mind Gets Filled With Rage I Raise My...
|-1-1-1-3-1--------1-3-1--3-1-3-(3)-5--------3-1----------|e
|-----------3-(3)----------------------3-3-3-----3-1-3-1--|B
|---------------------------------------------------------|G
|---------------------------------------------------------|D
|---------------------------------------------------------|A
|---------------------------------------------------------|E

Chorus
(Blue is alternate way to play)
The Fear I See When I Look In Your Eyes Makes You Believe I'm...
|---1-1-1-1----1-1----1-(1)--1--1-1--1--1--1-------------|e
|-3---------3------3-------------------------3-3-3-(3)-1-|B
|--------------------------------------------------------|G
|--------------------------------------------------------|D
|--------------------------------------------------------|A
|--------------------------------------------------------|E

Same Lyrics as above
|-------------------------------------------------------------------------------|e
|-------------------------------------------------------------------------------|B
|-------------------------------------------------------------------------------|G
|-------------------------------------------------------------------------------|D
|0-------0--0--3--6---6--5--4---0--3--2---0--2--1---0--0--3--6---6--5--4---0--3-|A
|0-------0--0--3--6---6--5--4---0--3--2---0--2--1---0--0--3--6---6--5--4---0--3-|E

|----------------|e
|----------------|B
|----------------|G
|----------------|D
|--------------1-|A
|-0---3--2--0--1-|E


Same Lyrics as below
|-------------------------------------------------------------------------------|e
|-------------------------------------------------------------------------------|B
|-------------------------------------------------------------------------------|G
|-------------------------------------------------------------------------------|D
|0--0--3--6---6--5--4---(4)--0---3--2---0--2--1---0--0--3--6---6--5--4---0--3--0|A
|0--0--3--6---6--5--4---(4)--0---3--2---0--2--1---0--0--3--6---6--5--4---0--3--0|E

Fear I Leave In The Back of your mind Makes you believe I'm...
|-1-1-1-1---1-1---1-(1)--1-1---1-(1)-----------|e
|---------3-----3------------3-------3-1-(1)---|B
|----------------------------------------------|G
|----------------------------------------------|D
|----------------------------------------------|A
|----------------------------------------------|E


Hey Hey Hey one of a kind Hey Hey Hey one of a kind Makes You Believe..
|----------7-7-7--7-----------7-7-7--7-----1-1---1-(1)----------|e
|-3--3--3------------3--3--3-------------------3-------3-1-(1)--|B
|---------------------------------------------------------------|G
|---------------------------------------------------------------|D
|---------------------------------------------------------------|A
|---------------------------------------------------------------|E


Repeat Hey Hey Hey One of a Kind w/o Makes you believe


End Riff (No Rest Before Next Line)
|------------------------------------------------------------|e
|------------------------------------------------------------|B
|------------------------------------------------------------|G
|------------------------------------------------------------|D
|------------------------------------------------------------|A
|-0-0-3-6--6-5-4--0-3-2--0-2-1--0-0-3-6--6-5-4--0-3-2--0-2-1-|E

The Fear I See When I Look In Your Eyes Makes You Believe Makes You...
|-------------------------------------------------------|e
|-------------------------------------------------------|B
|-------------------------------------------------------|G
|-0-3-3-3-3-0--3-3-0-3-(3)--3-3-0-3-(3)--3-(3)--3-0-0---|D
|-----------------------------------------------------3-|A
|-------------------------------------------------------|E

Same lyrics as line above (Alt. version)
|------------------------------------------------------------------------------|e
|------------------------------------------------------------------------------|B
|------------------------------------------------------------------------------|G
|------------------------------------------------------------------------------|D
|--------6--------4--------2------2--1-----------6--------4--------2------2--1-|A
|-0-0-3--6---6-5--4---0-3--2---0--2--1---0--0-3--6---6-5--4---0-3--2---0--2--1-|E

Fear I See in the back of your mind makes you believe makes you...
|-------------------------------------------------------|e
|-----------------------------------------------------3-|B
|-------------------------------------2-2-2-------------|G
|-3-3-3-3-0--3-3-0-3-(3)-3-3-0-3-(3)--------3-(3)-------|D
|-------------------------------------------------------|A
|-------------------------------------------------------|E


Same lyrics as below (Alt. version)
|---------------------------------------------------|e
|---------------------------------------------------|B
|---------------------------------------------------|G
|---------------------------------------------------|D
|-0--0--3--6---6--5--4---0--3-----------------------|A
|-0--0--3--6---6--5--4---0--3--0---2--1--0--3--2--1-|E


Fear I See When I Look in your eyes makes you believe I'm...
|-1-1---1--1-----1-1-----1-(1)-----1-1---1-1--1---1---------------|e
|-----3------3-3-----3-3--------3------3--------3---3-3-3-3-(3)-1-|B
|-----------------------------------------------------------------|G
|-----------------------------------------------------------------|D
|-----------------------------------------------------------------|A
|-----------------------------------------------------------------|E

Fear I Leave in the back of your mind Makes you believe I'm One of a
|-1-1---1--1---1-1------1-1-----1-(1)-----1-1---1-1-1----1---------|e
|-----3------3-----3-3------3-3--------3------3-------3----3-3-3-3-|B
|------------------------------------------------------------------|G
|------------------------------------------------------------------|D
|------------------------------------------------------------------|A
|------------------------------------------------------------------|E

...Kind          Hey Hey Hey One of a kind!
|---------------------------7-7-7--7-------|e
|-(3)-1-(1)-3----3---3---3-----------------|B
|------------------------------------------|G
|------------------------------------------|D
|------------------------------------------|A
|------------------------------------------|E

Play 2x
|--------------------------------------------------------------------|e
|--------------------------------------------------------------------|B
|--------------------------------------------------------------------|G
|--------------------------------------------------------------------|D
|-0-0-----0--0-0--0-0-0--0--0-0--0-0-0--0--0-0-0-0-0-0--6--5--4--0-0-|A
|-0-0-----0--0-0--0-0-0--0--0-0--0-0-0--0--0-0-0-0-0-0--6--5--4--0-0-|E



SMACKDOWN!





Marilyn Manson - The Beautiful People
Drop D Tuning (low to high)  D A D G B E
Heavy Distortion

Intro/Main Bass Arranged For Guitar (Riff A)
|---------------------------------------|e
|---------------------------------------|B
|---------------------------------------|G
|---------------------------------------|D
|---------------------------------------|A
|-0-6-0-6-0--0-6-0-6-0--0-3-0-----------|E

(0's are X's)
And I Don't Want Ya And I Don't Need Ya Don't Bother To Resist or...
|----------------------------------------------------------|e
|-0-0-0--0-0---0--0-0-0-0--0-0-0--0--0--0-(0)-0-0-0-(0)--0-|B
|----------------------------------------------------------|G
|----------------------------------------------------------|D
|----------------------------------------------------------|A
|----------------------------------------------------------|E

(0's are X's) (ignore X's on tab)
It's Not Your Fault That You're Always Wrong The Weak Ones Are There...
|----------------------5-(5)---------------------------------|e
|-0-0-0--0--0-0--0--0--0-(0)---0-0--0-0--0-0-0-0--0-0--0-0---|B
|------------------------------x-x--x-x--x-x-x-x--x-x--x-x---|G
|------------------------------0-x--x-0--x-x-0-0--x-x--x-x---|D
|--------------------------------3--3----0-0------x-x--x-x---|A
|-------------------------------------------------1-1--5-5---|E

(0's are X's) (Ignore x's on tab)
Chorus
The Beautiful People The Beautiful People (2nd Time Riff B)
|------------------------------------------------------|e
|-0--0-0-0--0-0---0--0-0-0--0-0---0--------------------|B
|-x--x-x-x--x-x---x--x-x-x--x-x---x---(Play-4-Times)---|G
|-0--0-0-0--0-0---0--0-0-0--0-0---0--------------------|D
|------------------------------------------------------|A
|------------------------------------------------------|E

Riff B (Play 4x) (2nd Time Through)
|----------------------------------------------|e
|----------------------------------------------|B
|----------------------------------------------|G
|----------------------------------------------|D
|----------------------------------------------|A
|-3--3-3-3-3--3---3--3-3-3-3--3---3-3-3--------|E

Chorus (Cont.)
(0's are X's) (Ignore x's on tab)
It's all relative to the size of your steeple (You Can't) see the...
|------------------------------------------------------------5-(--5)-|e
|-0--0--0-0--0--0-0--0-0-0-0-(0)-0--------0-0--0-0---0--0--0-1-(0-1)-|B
|-----------------------------------------x-x--x-x---x--x------------|G
|-----------------------------------------x-x--x-x---x--x------------|D
|-----------------------------------0--0--0-0--0-0---0--0------------|A
|--------------------------------------------------------------------|E

and you can't smell your own shit on your knees
|----------------------0-----5-5--5-(5)------|e
|-0-1--0-1--0-1---3-3--0--0--0-0--0-(0)------|B
|---x----x----x---x-x--x---------------------|G
|---x----x----x---0-0--2---------------------|D
|---3----3----3------------------------------|A
|--------------------------------------------|E

3/4 Line Break Then...
|------------------------------------------------------|e
|------------------------------------------------------|B
|------------------------------------------------------|G
|------------------------------------------------------|D
|------------------------------------------------------|A
|-3--3-3-3-3--3--3-3-3-3--3---3-3-3-3--3--3-3-3-3--3---|E

(Play 4x)                           Then Play  (4x also)
|------------------------------------------------------------|e
|------------------------------------------------------------|B
|------------------------------------------------------------|G
|------------------------------------------------------------|D
|-0--3--0-------0--6--0--6--0----0--6--0--6--0----0--3--0----|A
|-0--3--0-------0--6--0--6--0----0--6--0--6--0----0--3--0----|E

|--------------------------------------------------------------------|e
|--------------------------------------------------------------------|B
|-Repeat-"It's-All-Relative..."--------------------------------------|G
|-Until-"Can't-Smell-Your-Own..."------------------------------------|D
|--------------------------------------------------------------------|A
|---------------------------------5-----5---5--4---4--3---(3)--3--2--|E

                     There's no time to discriminate, hate every...
|------------------------------------------------------------------|e
|------------------------------------------------------------------|B
|------------------------------------------------------------------|G
|-----------------------0-0--0--0-2--------------------------------|D
|-----------------------------------3-3--3-(3)--3--3-3-3-3--3-3--3-|A
|-2--3--4--5---5--4------------------------------------------------|E

...In Your Way   
|-------------------------|e
|-------------------------|B
|-------------------------|G
|-------------------------|D
|-2-2---2-(2)-------------|A
|-------------------------|E

(All notes are X's)
Hey You, What Do you see? Something Beautiful something free?
|-5---5---5-5-5-5-(5)--5-5--5-5--5--5-5--5-(5)-|e
|----------------------------------------------|B
|----------------------------------------------|G
|----------------------------------------------|D
|----------------------------------------------|A
|----------------------------------------------|E

(All notes are X's) (Ignore X's on tab)
Hey!  You! Are you trin' to be mean? You live with apes man, it's...
|-5---5---5-5-5-5-(5)---5-5-5---5---5-5--5-5-5-1-(1)-----------------|e
|-----------------------------------------------------------3-----3--|B
|-----------------------------------------------------------x-----x--|G
|-----------------------------------------------------------0-----0--|D
|--------------------------------------------------------------------|A
|--------------------------------------------------------------------|E

(0's are X's)
The Worms They Live in Every Host It's Hard to pick which one...
|--------------------------------------------------------------|e
|-0-0-0--0----0---0-0-0-0-(0)---0-0-0--0-0-0-0--0--0--0-(0)----|B
|--------------------------------------------------------------|G
|--------------------------------------------------------------|D
|--------------------------------------------------------------|A
|--------------------------------------------------------------|E

(0's are X's) (Play "Horrible People" Part 3 Times)
The Horrible People The Horrible People It's Made it this way
|-5--5-5-5--5-5--5---5-5-5---5-5--(5)-------------------------|e
|---------------------------------------0--0-0-0-0-(0)--------|B
|-------------------------------------------------------------|G
|-------------------------------------------------------------|D
|-------------------------------------------------------------|A
|-------------------------------------------------------------|E

(All Notes are  X's)
Old Fashioned Fascism will TAKE IT AWAY!!!
|---------------5---5-5-5-9-(9)---(9)----------|e
|-0-0-0---0-0-0--------------------------------|B
|----------------------------------------------|G
|----------------------------------------------|D
|----------------------------------------------|A
|----------------------------------------------|E

|----------------------------------------------|e
|-------------Repeat-"Hey-You..."--------------|B
|---------------Part-1-Time--------------------|G
|----------------------------------------------|D
|----------------------------------------------|A
|----------------------------------------------|E

Interlude:  Hey    Hey    Hey   Hey   Hey
|------5-----------------5------------------|e
|------3--------3--------3--------3---------|B
|-------------------------------------------|G
|-------------------------------------------|D
|-------------------------------------------|A
|-------------------------------------------|E

(Whispered)
(All Notes Are X's)
The Beautiful People, The Beautiful People, The Beautiful People...
|--------------------------------------------------------------------|e
|-0--0-0-0--0--0--0--0-0-0--0-0-(0)---0--0-0-0--0--0--0--0-0-0---0-0-|B
|--------------------------------------------------------------------|G
|--------------------------------------------------------------------|D
|--------------------------------------------------------------------|A
|--------------------------------------------------------------------|E

(All Notes are X's)
B E A U T I F U L   P E O P L E ! ! ! !
|-5-5-5---5-5-(5)---------------------------------------|e
|---------------------Repeat-"Hey-You..."---------------|B
|-----------------------Part-2-Times--------------------|G
|-------------------------------------------------------|D
|---------------------------------Then-Play-Last-Line---|A
|----------------------------------------2-Times--------|E


WWE RAW



Union Underground - Across The Nation
Drop D Tuning (low to high) B F# B E G# C#

Intro
I'll Get The Guns, The Drugs For My Generation I'll Take The Fall, The Saint, Across The Nation
|-(5)-7-7--5--7-3--5--7-0--3-3-0-3--0-0-0----0--3-5-7--3-3-0-3-0--|e
|-----------------------------------------3-----------------------|B
|-----------------------------------------------------------------|G
|-----------------------------------------------------------------|D
|-----------------------------------------------------------------|A
|-----------------------------------------------------------------|E

Yeah It's the sex, the gods, the fakes the frauds They're Messing...
|-(5)-7-7-3-5-3-5-(5)-3-5-3-5-3--5-5-5-7--5-5--5-5--5-5-7---0-0-0---|e
|---------------------------------------------------------3-------3-|B
|-------------------------------------------------------------------|G
|-------------------------------------------------------------------|D
|-------------------------------------------------------------------|A
|-------------------------------------------------------------------|E

Chorus
Move To the music Play that funky music Movin to the music, yeah
|-0--0---0--3-0-(0)-0-0-0--0-3--0-(0)-0-0----0-3--0-(0)--0-0-0--|e
|------3----------------------------------3---------------------|B
|---------------------------------------------------------------|G
|---------------------------------------------------------------|D
|---------------------------------------------------------------|A
|---------------------------------------------------------------|E

Move to my music, Play that funky music Live through my music Yeah
|-0-0---0-3--0-(0)-0-0---0-3---0-0---0-3--3-(3)-|e
|-----3----------------3-----------3------------|B
|-----------------------------------------------|G
|-----------------------------------------------|D
|-----------------------------------------------|A
|-----------------------------------------------|E

Now Get the guns the drugs to my generation, I'll take the fall...
|-5-5-5--5-7--3-5-7-0--3-3-0-3--0-0-0---0--3-5-7---3-3-0-3--0-5-7-3-0|e
|--------------------------------------3-----------------------------|B
|--------------------------------------------------------------------|G
|--------------------------------------------------------------------|D
|--------------------------------------------------------------------|A
|--------------------------------------------------------------------|E

Yeah, its the sex the gods, the fakes the frauds they're messing with..
|-5-7-3--5-7--3-5-7-(7)--3-5-7--3-5-7--3-5-5-5-7----|e
|---------------------------------------------------|B
|---------------------------------------------------|G
|---------------------------------------------------|D
|---------------------------------------------------|A
|---------------------------------------------------|E

Come on Come on Come on, Let's Get it on
|-5-5--5-5--5-5--7---0-0-0---------------------|e
|------------------3-------3-------------------|B
|-------------------------------(Play-Chorus)--|G
|----------------------------------------------|D
|----------------------------------------------|A
|----------------------------------------------|E

|-------------------------------------7-5-5-3--|e
|----------------------------------------------|B
|------------Play-2nd-Verse-Same-as------------|G
|--------------"Now-Get-The-Guns"--------------|D
|------------------Begins-With-----------------|A
|----------------------------------------------|E

Whispered: Move through the music ("sic" "sic")...
|--------------------------------------------------------------------|e
|-x-x-x--x-x--x-(x)-x-x--x-(x)-x-x-x--x-x-x-(x)--x--x-x--x-x-x-(x)-x-|B
|--------------------------------------------------------------------|G
|--------------------------------------------------------------------|D
|--------------------------------------------------------------------|A
|--------------------------------------------------------------------|E

Whispered: Live through the music, yeah. Move through the music...
|--------------------------------------------------------|e
|-x-x-x--x-x-x-0--x--x-x--x-x-x-(x)--x--x-x-x--x-x--x-0--|B
|--------------------------------------------------------|G
|--------------------------------------------------------|D
|--------------------------------------------------------|A
|--------------------------------------------------------|E

Play-Chorus-Til-End


MATT HARDY

MATTITUDE



LIVE FOR THE MOMENT (MONSTER MAGNET)
Tune Down 1/2 Step
(low to high) Eb - Ab- Db-Gb-Bb-Eb
Light Distorion

Intro
|-----------------------------------------------------|e
|-----------------------------------------------------|B
|-----------------------5-------4--------5-------4----|G
|-----0--------0------5-------4---4----5-------4---4--|D
|---2--------2---2--3------2---------3------2---------|A
|-0------3--------------------------------------------|E

There's a little pile of ashes where my old life used to be and your credit
cards & mem-o-ries all dumped into 
|------------------------------------------------------------------------------|e
|------------------------------------------------------------------------------|B
|---------------------------------------0-------------------------------0------|G
|-2-0--2-0-2--(2)-0-2--0---2-0--2--0--2---2-(2)---2-0--2--0----------0----2--2-|D
|------------------------------------------------------------2-0--2------------|A
|------------------------------------------------------------------------------|E

the sea     Well, this ain't no time for bull(shit) as I fly in-to the sun...
|------------------------------------------------------------------------------|e
|------------------------------------------------------------------------------|B
|------------------------------------------------------------------------------|G
|-0-2-(2)------------------------------------------------2-0--2-0-2-0-(0)--0-0-|D
|-----------0-0--2-2--2-0-2---2----0-0--0---2-(2)---2-2------------------------|A
|-------------------------------3---------3------------------------------------|E

..Can't Trust number 1  Well, The man tells me my future is not so far away to get
|------------------0----0----0---0--(0)--------0----0-3-0----------|e
|--------------------3----3----3--------3---3----3--------(3)------|B
|------0-0-----------------------------------------------------2-2-|G
|-2-2------3-(2)---------------------------------------------------|D
|------------------------------------------------------------------|A
|------------------------------------------------------------------|E

Ready for to-mor-row I got-ta waste my whole to-day  But my in-ner light knows...
|----------------------------------------------------0-0-0--(0)-----------------|e
|--------------0---------------------0-0------------------------3--0------------|B
|-2-0-2--(2)-0-------------2--(2)-0------2-(0)-----------------------2--0-2--2-0|G
|-----------------2-2--0-0----------------------0-2-----------------------------|D
|-------------------------------------------------------------------------------|A
|-------------------------------------------------------------------------------|E

wan-na hear    Just like a dia-mond bul-let well, it's crys-tal, crys-tal clear...
|--------------1--0---0--(0)---0--------0-0--5-7-5-7--5-5-(3)-7-(7)--7--(7)-11-|e
|------0-(0)--------3--------3---3-(3)-----------------------------------------|B
|-2--0-------------------------------------------------------------------------|G
|------------------------------------------------------------------------------|D
|------------------------------------------------------------------------------|A
|------------------------------------------------------------------------------|E


Chorus

|----------------------------|e
|----------------------------|B
|-----9--7--9----------------|G
|-----9--7--9--9--8--7--5----|D
|-----7--5--7--9--8--7--5----|A
|-0------------7--6--5--3----|E

I can slap a tor-na-do I can dry up a sea yeah,  When I live for the moment...
|-7-5-5--(5)-3-0-5--3-(3)---0-0-3------0-0-3-(3)------7-7-5--(5)-3-0-5-3-(3)|e
|-0-x-x--(x)-x-x-x--x-(x)----------(3)------------3---0-0-x--(x)-x-x-x-x-(x)|B
|---2-2--(2)-0-x-2--0-(0)---------------------------------2--(2)-0-x-2-0-(0)|G
|--------------2---------------------------------------------------2--------|D
|---------------------------------------------------------------------------|A
|---------------------------------------------------------------------------|E

There ain't no, ain't no re - lief
|-0-0-0--0-0-0---------|e
|--------------3-(3)---|B
|----------------------|G
|----------------------|D
|----------------------|A
|----------------------|E


*Repeat back to beginning for 2nd Verse and repeat chorus then play*


Well I Can Dry up a sea  When I live for the moment there ain't no, ain't no...
|-0-0----3-0-0-0--------7-7-5--(5)-3-0-5-3--(3)---0-0-0--0-0-0--------|e
|-----3-----------(0)---0-0-x--(x)-x-x-x-x--(x)----------------3--(0)-|B
|---------------------------2--(2)-0-x-2-0--(2)-----------------------|G
|------------------------------------2--------------------------------|D
|---------------------------------------------------------------------|A
|---------------------------------------------------------------------|E

Now Don't you sell me no future, yeah don't you sell me your love
|-0-0-0--3-5-3-7--5-3-0-(0)--(0)--3---0-0-3------0-0----------|e
|-x-x-x--x-x-x-0--x-x-x-(x)--(x)--x----------(3)-----3--(0)---|B
|-x-x-x--0-2-0----2-0-x-(x)--(x)--0---------------------------|G
|-2-2-2---------------2-(2)--(2)------------------------------|D
|-------------------------------------------------------------|A
|-------------------------------------------------------------|E

I ain't punch-in' your num-ber  you couldn't pay me e - nough! I ain't buyin'...
|-7-7-5--(5)-3-0-5--3-(3)---0-0-0--3-5-3-7-(7)--7----------------------|e
|-0-0-x--(x)-x-x-x--x-(x)----------------------------------------------|B
|-----2--(2)-0-x-2--0-(0)-----------------------------------------0--0-|G
|--------------2------------------------------------2-2-0-2--2--2------|D
|----------------------------------------------------------------------|A
|----------------------------------------------------------------------|E

When the past is so far a - way  I ain't buyin' no future when the past is...
|-------------------------------------------------------------------------------|e
|-------------------------------------------------------------------------------|B
|-0---0-(0)----0--(0)-----------------------------------------------------------|G
|---2--------2--------3-2-2-(2)-------------------------------------------------|D
|---------------------------------2-2-2--2--2-0-----0---2-(2)--0-0--(0)-0-0-2-(2|A
|------------------------------------------------3----3-------------------------|E

I ain't buyin' no future when the past is so far a - way I ain't buyin' no future
|-0-0-0--0--0-3--0-3--0--0-0-3-(3)--0-3--(3)-1-0-1-(0)--0-0-0--0--0-7--0-|e
|------------------------------------------------------------------------|B
|------------------------------------------------------------------------|G
|------------------------------------------------------------------------|D
|------------------------------------------------------------------------|A
|------------------------------------------------------------------------|E

When The Past is so far a - way!   Yeah
|-5-3-7-(7)--0-3--(3)-5-3-7-(7)---7---9-(0)---7--(0)-|e
|----------------------------------------------------|B
|----------------------------------------------------|G
|----------------------------------------------------|D
|----------------------------------------------------|A
|----------------------------------------------------|E

You Couldn't pay me enough you couldn't pay me enough
|-0-0-0--3-0-0--------5-5-3--5-3--7-5-3-(3)-|e
|--------------3-(0)------------------------|B
|-------------------------------------------|G
|-------------------------------------------|D
|-------------------------------------------|A
|-------------------------------------------|E

OUTRO
Couldn't pay me enough  you couldn't pay me enough You couldn't pay me...(Play 2x)
|-5-3--5-3-0-3--5-5-3--5-3--7-5-(3)--5-5-3--5-3-0-3--5-5-3--5-3--7-5-3--(3)-|e
|---------------------------------------------------------------------------|B
|---------------------------------------------------------------------------|G
|---------------------------------------------------------------------------|D
|---------------------------------------------------------------------------|A
|---------------------------------------------------------------------------|E

You couldn't pay me enough  You couldn't pay me enough  You couldn't pay me...
|-0-0-0--3-3--3-1-0--0-0-0--3-3--3-1-1--0-0-0--3-3--3-0-0--5-5-3--5-5-3-7-(7)-|e
|---------------3-0--------------3-3-3--------------3-------------------------|B
|-----------------------------------------------------------------------------|G
|-----------------------------------------------------------------------------|D
|-----------------------------------------------------------------------------|A
|-----------------------------------------------------------------------------|E

Couldn't pay me enough  you couldn't pay me enough  you couldn't pay me enough...
|-0-0--0-0-0----0-0-0--------0--0--------0-0-0--0-0-0--0-0-0-1-|e
|------------3---------3-3-3------3-3--3-----------------------|B
|--------------------------------------------------------------|G
|--------------------------------------------------------------|D
|--------------------------------------------------------------|A
|--------------------------------------------------------------|E

(Begin Fade)  Couldn't Pay me enough,  Couldn't pay me enough  You couldn't...
|-5-3--5-3-0-3--5-3--5-3-7-7--(7)-0-0------0-0-7---0-0-0--3---0-|e
|-------------------------------------3--3------------------3---|B
|---------------------------------------------------------------|G
|---------------------------------------------------------------|D
|---------------------------------------------------------------|A
|---------------------------------------------------------------|E

|-------------------------------------------------------------------------------|e
|12-15-12-----15-12-15-12-----15-12-15-12---12-15-12-15-12-----12-15-12-15-12---|B
|---------14--------------14-------------14----------------14-----------------14|G
|-------------------------------------------------------------------------------|D
|-------------------------------------------------------------------------------|A
|-------------------------------------------------------------------------------|E

|------------------------------------------------------------|e
|-12-15-12-15-12-----12-15-12-15-12-----12-15-12-12-12-12-15-|B
|----------------14-----------------14-----------------------|G
|------------------------------------------------------------|D
|------------------------------------------------------------|A
|------------------------------------------------------------|E

|-------------------------15----15--12-----12-------------------|e
|-15---15---15---(15)-12----------------15----15-----15----(15)-|B
|---------------------------------------------------------------|G
|---------------------------------------------------------------|D
|---------------------------------------------------------------|A
|---------------------------------------------------------------|E



CHRIS JERICHO



Sevendust: Break The Walls Down

Drop D Tuning   (low to high) (B  F#  B  E  G#  C#)

Intro: (Spoken - Come on, You Know I've Got You...)
|----------------------------------------------------------------------------|e
|----------------------------------------------------------------------------|B
|------------------------------5-5-5-5-------------------------------x-x-x-x-|G
|-0-0-0-0--1-0-0-0--1-0----0---1-1-1-1--0-0--0---1-0-0-0--1--0---0---x-x-x-x-|D
|----------------------------------------------------------------------------|A
|----------------------------------------------------------------------------|E

Break the walls down, break the walls down
|-------------------------------------------------------------------------|e
|-------------------------------------------------------------------------|B
|-------------------------5-5-5-5---------------------------------x-x-x-x-|G
|-0-0-0-0--1-0--0-1-0--0--1-1-1-1--0-0--0--1-0--0-1-0--0-1-0---0--x-x-x-x-|D
|-------------------------------------------------------------------------|A
|-------------------------------------------------------------------------|E

Guitars 1 & 2 (Distorted)  Come on, Come on...Ooh
|--------------------------------------------------------------------5----(5)---|e
|-----------------------------------------------------------------0-------------|B
|-------------------------------------------------------------------------------|G
|--------------------------2--3---(play-2x--------------------------------------|D
|--------------------------2--3---on-2nd-play----------------x-x-x-x------------|A
|-0-0--0--6-0--0-6-0---0---2--3---this-for-last-3-notes)-----x-x-x-x------------|E

Verse 1
For those about to rock, I Know what_ ya want You're the Judas and I'm the Priest
|-1-3-1-3--(3)-1-3---3-1-3--(3)-1-3---3-1--3-3-1-3--(3)-1-5---3--(3)-1-3-1--3-3-|e
|-------------------------------------------------------------------------------|B
|-------------------------------------------------------------------------------|G
|-------------------------------------------------------------------------------|D
|-------------------------------------------------------------------------------|A
|-------------------------------------------------------------------------------|E

(From..._ The Least.)  Bring it to the stage, the rage, I'm the beast
|-(3)-1-5---3-3-3-1--3-0-3--(3)-3-0-3--|e
|--------------------------------------|B
|--------------------------------------|G
|--------------------------------------|D
|--------------------------------------|A
|--------------------------------------|E

Spoken: Step in-to the a-re-na and break___The walls down.  Jericho...
|--------------------------------------------------------------------------|e
|-0-0-0-0-0--0-0-0-0--(0)-0-0--0-----0-0-0--(0)----0-0-0--(0)---0-0-0--(0)-|B
|----(Play-This-2x)--------------------------------------------------------|G
|--------------------------------------------------------------------------|D
|--------------------------------------------------------------------------|A
|--------------------------------------------------------------------------|E

Verse 2
I'm a-wake-ened from a deep sleep.__You're a-wake. You're living in the agony...
|-3-1-3--(3)-1-3--1-3-3--(3)-3-1-3--3-1-3--3-1-3--3--1-3--(3)-1-1-3--(3)-1-5-|e
|----------------------------------------------------------------------------|B
|----------------------------------------------------------------------------|G
|----------------------------------------------------------------------------|D
|----------------------------------------------------------------------------|A
|----------------------------------------------------------------------------|E

I'm the master of your whole heap (I'm the pasture-ya flock like sheep)...
|-3-1--3-1-3--(3)-1-3--3----------------------------------------------------|e
|-------------------------0-0-0--(0)-0--0--0-0-0--0-0-0-0--0-0-0--(0)-0-0-0-|B
|---------------------------------------------------------------------------|G
|---------------------------------------------------------------------------|D
|---------------------------------------------------------------------------|A
|---------------------------------------------------------------------------|E

Your heart - beat is the only sound Step in-to the light and then ya know...
|-------------------------------------------------------------------------------|e
|-0-0--(0)-0--0-0--0-0--0--0-0-0-0--0-0-0--(0)-0--0--0-0-0--0-0--0-0-0--(0)-0-0-|B
|-------------------------------------------------------------------------------|G
|-------------------------------------------------------------------------------|D
|-------------------------------------------------------------------------------|A
|-------------------------------------------------------------------------------|E

..i-cho   Jericho  Jericho  Jericho  Jericho's on your ass wait to pass...
|---------------------------7-7-7-(7)-----------------------------------------|e
|-0-0---0-0--0--0-0--0-(0)--------------0-0-0-0--(0)-0-0--0-0--0-0-0--(0)-0-0-|B
|-----------------------------------------------------------------------------|G
|-----------------------------------------------------------------------------|D
|-----------------------------------------------------------------------------|A
|-----------------------------------------------------------------------------|E

It's time to blast  Your ass is grass
|-----------------------|e
|-0-0-0--0-0-0--(0)-0-0-|B
|-----------------------|G
|-----------------------|D
|-----------------------|A
|-----------------------|E

Verse 3
For those about to rock set the clock for those about to jump I'm all pumped...
|-1-3-1-3--(3)-1-3--3-1--3-1--3-1-3--(3)-1-3--3-1--3-1--3-1-3--(3)-1-3--3-1--3-3|e
|-------------------------------------------------------------------------------|B
|-------------------------------------------------------------------------------|G
|-------------------------------------------------------------------------------|D
|-------------------------------------------------------------------------------|A
|-------------------------------------------------------------------------------|E

Break Down the walls of Jer-i-cho    Jericho          Jericho          Jericho
|-(3)-3-1--3-3-3--(3)-------------------5-5-5-(5)-(5)---5-5-5-(5)---------------|e
|---------------------3-3----0-0-0-(0)-----------------------------0-0-0-(0)-0-0|B
|-------------------------------------------------------------------------------|G
|-------------------------------------------------------------------------------|D
|-------------------------------------------------------------------------------|A
|-------------------------------------------------------------------------------|E

Do it  Do it  Do it  Do it (jericho) Do it  Do it Do It Do It...
|-------------------------------------------------------------|e
|-(0)-0-0--0-0-0--0-0-0--(0)-0-0-0--0-0-0--0-0-0---0-0--(0)-0-|B
|-------------------------------------------------------------|G
|-------------------------------------------------------------|D
|-------------------------------------------------------------|A
|-------------------------------------------------------------|E

Spoken/No Music         Lyrics:

Take that motherfucker down  Don't help him up, Hold up  Take his ass down again
Hold up, You got him? I'm coming from up top, fucker

OUTRO

Jericho   Jericho   Jericho (Spoken: "Sevendust up in this") Ah Jericho's on...
|-5-5-5-(5)----------------9-9-5-9--(9)-5-9--9-5--9-5-9--(9)-5-9--9-9-5--9-5-9-|e
|--------0-0-0--0--0-0--0------------------------------------------------------|B
|------------------------------------------------------------------------------|G
|------------------------------------------------------------------------------|D
|------------------------------------------------------------------------------|A
|------------------------------------------------------------------------------|E

(ass)__ is grass J-E-R-I-C-H-O
|-(9)-5-9--5-5-5-(5)-|e
|--------------------|B
|--------------------|G
|--------------------|D
|--------------------|A
|--------------------|E


LITA



Boy Hits Car: LoveFuryPassionEnergy
Tuning: (low to high) C G C G G C

Intro
|0--0--0-----------0-0--0-0-0--0-0--0------------0-0--0-0---0-0--0-----------0-0|e
|0--0--0--7--7--7--7-7--7-7-7--0-0--0--7--7--7---7-7--6-6---0-0--0--7--7--7--7-7|B
|0--0--0--7--7--7--7-7--7-7-7--0-0--0--7--7--7---7-7--6-6---0-0--0--7--7--7--7-7|G
|0--0--0--0--0--0--0-0--0-0-0--0-0--0--0--0--0---0-0--0-0---0-0--0--0--0--0--0-0|D
|-------------------------------------------------------------------------------|A
|-------------------------------------------------------------------------------|E

|-0-0-0---0-0--0------------0-0---0-0---------------------------|e
|-7-7-7---0-0--0--7--7--7---7-7---6-6---------------------------|B
|-7-7-7---0-0--0--7--7--7---7-7---6-6---------------------------|G
|-0-0-0---0-0--0--0--0--0---0-0---0-0-----0-0--0-0--0-0--0-0--0-|D
|-----------------------------------------0-0--0-0--0-0--0-0--0-|A
|-----------------------------------------0-0--0-0--0-0--0-0--0-|E

                     (Play part below 5x) (then: 12 0 x 12 4x)
|-12---7----5---(5)---4-5-5-4----------|e
|---------------------5---5-5-----5-12-|B
|---------------------0---0-0-----0-0--|G
|---------------------x---x-x-----x-x--|D
|---------------------5---5-5-----5-12-|A
|--------------------------------------|E

Verse 1
She's like a lost flower, growing out through a crack in the bustling sidewalk...
|-1--0--1-0-1-0---0-1-0---0-----3--1--0--1-0-1-0---0-------------------|e
|---------------------------1------------------------3--1-1--1-1--3--0-|B
|----------------------------------------------------------------------|G
|----------------------------------------------------------------------|D
|----------------------------------------------------------------------|A
|----------------------------------------------------------------------|E

So hey, where we going? Tell me where we've gone Was there love and fury...
|-1--0--0-0-1-0--1--0--0----3---1--0--1-0-1-0---1-0-0--1-0-1-0-|e
|------------------------1-------------------------------------|B
|--------------------------------------------------------------|G
|--------------------------------------------------------------|D
|--------------------------------------------------------------|A
|--------------------------------------------------------------|E

Chorus
So Fuck your rules, man You step up you'll go down fast I've got to release...
|-3--1-1-0--(0)-0---1-3--1-0-1--(1)---3-(3)---3--1-0-1--(1)-3-1--(1)------1---|e
|-----------------------------------1--------------------------------1--1---1-|B
|-----------------------------------------------------------------------------|G
|-----------------------------------------------------------------------------|D
|-----------------------------------------------------------------------------|A
|-----------------------------------------------------------------------------|E

Same Lyrics as above (Alt. Version) (Play both to get line up lyrics correctly)
|-----------------------------------------------------x--x---x-|e
|------------------------3----------------------------x--x---x-|B
|------------------------2----------------------------x--x---x-|G
|-3--0---------0---3--0------3---0---------0---3--0------------|D
|-3--0--0-3-5--0---3--0------3---0--0-3-5--0---3--0------------|A
|-3--0---------0---3--0------3---0---------0---3--0------------|E


Same Lyrics as Below (Alt. Version)
|--------------------------------------------------------------|e
|--------------------------------------------------------------|B
|--------------------------------------------------------------|G
|-3--0---------0---3--0---3-3-------------------------0---3--0-|D
|-3--0--0-3-5--0---3--0-------7---3-5---2-3-----------0---3--0-|A
|-3--0---------0---3--0----------------------0-3--5---0---3--0-|E

__Made up my past        Shit that has made up my past (2nd time ONLY-instead of)
|-------1--(1)-0-------------1----------1--(1)-0--------|e
|-(1)-0----------1-(1)-----1---1--(1)-0----------1-(1)--|B
|-------------------------------------------------------|G
|-------------------------------------------------------|D
|-------------------------------------------------------|A
|-------------------------------------------------------|E

Repeat to beginning for 2nd Verse repeat chorus-with the exception of
"Shit that has made up my past" and then add part below:

So go let your soul dance, baby time to free yourself at last Unshackle your...
|---3--1-1-1--(1)-0-1--(1)-0---3-3--1-1-1--(1)---3-(3)---3--1-1-0--(0)-3-1--(1)-|e
|-1--------------------------------------------1-------------------------------1|B
|-------------------------------------------------------------------------------|G
|-------------------------------------------------------------------------------|D
|-------------------------------------------------------------------------------|A
|-------------------------------------------------------------------------------|E

Pry away far from the past______________'Cause it's gone_____________________
|-1-1----------1--(1)-0---------3---(3)---(1)---1--3--0--0---1--0--1--0-1-3-1-|e
|-----1--(1)-0----------1-(1)-------------------------------------------------|B
|-----------------------------------------------------------------------------|G
|-----------------------------------------------------------------------------|D
|-----------------------------------------------------------------------------|A
|-----------------------------------------------------------------------------|E

_______   INTERLUDE: (Short-Guitar 8)(Play 2nd part 2x)
|-0-1-3-1----------------------------------------------------------------|e
|------------------------------------------------------------------------|B
|---------------8-7-8-7-8-7-8-7-8-7----8-7-8-7-8-7-8-7-8-7-8-7-8-7-8-7---|G
|------------------------------------------------------------------------|D
|------------------------------------------------------------------------|A
|------------------------------------------------------------------------|E

Bridge
Like a lost flower growing with mad wind Like a
|---------------------------------------------------------------3-1--1-(1)-|e
|-1--0-0-(0)---1--0---0----------------------------------------------------|B
|------------------------2--2-----0--(0)-----------------------------------|G
|------------------------------3---------3--3--2--3--(3)-2-(2)-------------|D
|--------------------------------------------------------------------------|A
|--------------------------------------------------------------------------|E

sad river who has no end.
|-3-7--(7)-7--1--1---1--3--(3)-1-1-0-(0)--(0)-------|e
|---------------------------------------------------|B
|---------------------------------------------------|G
|-----------------------------------------------3-2-|D
|---------------------------------------------------|A
|---------------------------------------------------|E

Guitar Solo (4 Lines-until next bridge)

Bridge II
So fuck your rules, man 'cause here comes my passion So fuck your rules, man
|-------------------------------0-----------------------------|e
|-1--1-1-1-(1)--0---1--1-1--(1)---1--(1)-0---1--1-1-1--(1)--0-|B
|-------------------------------------------------------------|G
|-------------------------------------------------------------|D
|-------------------------------------------------------------|A
|-------------------------------------------------------------|E

'cause here comes my love  So fuck you're rules, man here comes my pure energy
|------------------------------------------------------------0--(0)----|e
|-1--1-----------------------1--1-1-1-(1)--0---1--1-1--(1)-1--------0--|B
|------0--------2------------------------------------------------------|G
|--------3--(3)---3--(3)-2---------------------------------------------|D
|----------------------------------------------------------------------|A
|----------------------------------------------------------------------|E

So fuck your rules, man 'cause here comes my FURY!!!!
|--------------------------1-3-7-7-|e
|-1--1-1-1-(1)--0---1--1-----------|B
|----------------------------------|G
|----------------------------------|D
|----------------------------------|A
|----------------------------------|E

Chorus II (Ending chorus)
So fuck your rules, man!  so fuck your rules, man!  Pry away far from the past
|-7--7-7-7--(7)-9-(9)---7--7-7-7--(7)-9-(9)---1-1----------1--(1)-0-------|e
|-------------------------------------------------1--(1)-0----------1-(1)-|B
|-------------------------------------------------------------------------|G
|-------------------------------------------------------------------------|D
|-------------------------------------------------------------------------|A
|-------------------------------------------------------------------------|E

Incomplete - Melody chanting (Last page)


CHRIS BENOIT



Our Lady Peace - Whatever
Tune Down 1 Step (low to high) D G C F A D

Intro
Ah, Mm  Ah Mm  Ah Mm   Ah Mm    Ah
|-1-3-----1-(1)-3-----1-(1)-3-----1-(1)-3-----1-(1)-----|e
|-----0-0---------0-0---------0-0---------0-0-----------|B
|-------------------------------------------------------|G
|-------------------------------------------------------|D
|-------------------------------------------------------|A
|-------------------------------------------------------|E

|-------------------------------------------------------------------|e
|-------------------------------------------------------------------|B
|-------------------------------------------------------------------|G
|---------5---------5---------5----------5-----------5---------5--5-|D
|-------------------------------------------------------------------|A
|-0-0-0-0---0-0-0-0---0-0-0-0---0-0-0-0---12-0-0-0-0---0-0-0-0------|E

Repeats in Background throughout most of song
|--------------------------------------------------------------------|e
|--------------------------------------------------------------------|B
|--------------------------------------------------------------------|G
|---------5---------5-5-4-5---------5---------5--5---------5--------5|D
|--------------------------------------------------------------------|A
|-0-0-0-0---0-0-0-0---------0-0-0-0---0-0-0-0------0-0-0-0--0-0-0-0--|E

There's no holding me back I'm not driven by fear, I'm just driven by..
|--------------------------------------0-(0)---------------0-(0)----|e
|---0-0-(0)---0--------------------------------------0---0----------|B
|---------------2-(2)-----0--2-2-2-(2)-------2-(2)-0---2--------2-2-|G
|-2---------2-----------2-------------------------------------------|D
|-------------------------------------------------------------------|A
|-------------------------------------------------------------------|E

...You're under attack I'm Just climbing up slowly I'm the one and...
|------------------------------------0-(0)----------------0-(0)----|e
|-0-0-(0)---0------------------0-(0)------------------0------------|B
|-------------2-(2)-----0--2-2-------------2-(2)-0--2---2------2-0-|G
|---------2-----------2--------------------------------------------|D
|------------------------------------------------------------------|A
|------------------------------------------------------------------|E

The Tease, The Wait, The lie. I Stumble in your mind The Fear, the...
|--------------------------------------------------------0----1---|e
|--------------------------------------------------------x--------|B
|---0-----------------------------0----------------------x--------|G
|-2---0-2-0-2--0-2-2-2-2-(2)-2--2---0-2-0-2---0-2-2----2-2--------|D
|-----------------------------------------------------------------|A
|-----------------------------------------------------------------|E

Chorus 
(Blue is alternate way to play)
...Ever you need, ever you got, ever you want, I'll Take Back Again...
|-3-3-3-(3)-5--3-3-3-(3)-5---3-3-3-(3)-5---0-3--3-1-0-1---|e
|---------------------------------------------------------|B
|---------------------------------------------------------|G
|---------------------------------------------------------|D
|---------------------------------------------------------|A
|---------------------------------------------------------|E

Same Lyrics as Above
|----------------------------------------------------------------|e
|----------------------------------------------------------------|B
|----------------------------------------9-------------9-------9-|G
|-5--5---5--5---5--7---7--7--------------9-------------9-------9-|D
|-5--5---5--5---5--7---7--7--------------7-------------7-------7-|A
|-3--3---3--3---3--5---5--5---0--0---0---0---0--0--0---0---0---0-|E


Same Lyrics as below
|-----------------------------------------------------|e
|-----------------------------------------------------|B
|----------------------------------------9----------9-|G
|-5--5---5--5---5--7---7--7--------------9----------9-|D
|-5--5---5--5---5--7---7--7--------------7----------7-|A
|-3--3---3--3---3--5---5--5---0--0---0---0---0--0---0-|E

...Ever you need, ever you got, ever you want, I'll Take Back Again  Oh
|-3-3-3-(3)-5--3-3-3-(3)-5---3-3-3-(3)-5---0-3---3-1----------|e
|----------------------------------------------------3------3-|B
|-------------------------------------------------------------|G
|-------------------------------------------------------------|D
|-------------------------------------------------------------|A
|-------------------------------------------------------------|E

|------------------------------------------------------|e
|------------------------------------------------------|B
|------------------------------------------------------|G
|------------5---------5--5---------5----------5-5-4-5-|D
|------------------------------------------------------|A
|-12-0-0-0-0---0-0-0-0------0-0-0-0----0-0-0-0---------|E

There's Ever You Need, Ever you got ever you want, I'll Take Back...
|---3-3-3-(3)-5--3-3-3-(3)-5--3-3-3-(3)-5--0-3--3-1-0-1--3-3-3-(3)-5-|e
|--------------------------------------------------------------------|B
|--------------------------------------------------------------------|G
|-2------------------------------------------------------------------|D
|--------------------------------------------------------------------|A
|--------------------------------------------------------------------|E

...Ever you Got
|-3-3-3-(3)-----------|e
|-----------3---------|B
|---------------------|G
|---------------------|D
|---------------------|A
|---------------------|E

Guitar Solo
|-14----14----14----14------------------------------------------|e
|----17----17----17----17---------------------------------------|B
|-------------------------15------------------------------------|G
|---------------------------------------------------------------|D
|-----------------------------------------------7--5------------|A
|-----------------------------0-0-0-0-3-0-0-0-0-------0-0-0-0-3-|E

Guitar Solo (Cont.)
|---------------14----14----14----14---------------------------------|e
|------------------17----17----17---17-------------------------------|B
|--------------------------------------15--(15)----------------------|G
|--------------------------------------------------------------------|D
|------------5-----------------------------------------------------7-|A
|-0-0-0-0-7-------------------------------------0-0-0-0-3--0-0-0-0---|E

Guitar Solo (Cont.)                  Oh
|--------------------------------------------------------------------|e
|------------------------------------3--13--13--13-13-13-13-13-13-13-|B
|---------------------------------------12--12--12-12-12-12-12-12-12-|G
|---------------------------------------14--14--14-14-14-14-14-14-14-|D
|-5------------------------------------------------------------------|A
|----0-0-0-0-3-0-0-0-0-3-3-3-4-5-------------------------------------|E

Guitar Solo (Cont./End)
|-13-13---------------------------------------------|e
|-12-12--15-15-12--13--15--15-15-15-15-15-15-15-----|B
|-14-14--------12--12--12---------------------------|G
|--------------14--14--14---------------------------|D
|---------------------------------------------------|A
|---------------------------------------------------|E


|--------------------------------------------------------------------|e
|--------------------------------------------------------------------|B
|--------------------------------------------------------------------|G
|---------5---------5-5----------5--------5-5-4-5---------5--------5-|D
|--------------------------------------------------------------------|A
|-0-0-0-0---0-0-0-0-----0-0-0-0---0-0-0-0---------0-0-0-0---0-0-0-0--|E

|----------|e
|----------|B
|----------|G
|-5--------|D
|----------|A
|----------|E


But Whatever You Need-Ever You Got Ever You Want I'll Take Back...
|-0-1--3-3-3-(3)-5--3-3-3-(3)-5--3-3-3-(3)-5--0-3--3-1-0-1-----|e
|--------------------------------------------------------------|B
|--------------------------------------------------------------|G
|--------------------------------------------------------------|D
|--------------------------------------------------------------|A
|--------------------------------------------------------------|E

...Ever You Need, Ever You Got  Whatever You Whatever you Want...
|-3-3-3-(3)-5--3-3-3-(3)-5-3---------------------------------------|e
|-----------------------------------0-(0)------------0-(0)-------0-|B
|---------------------------------0-------2-0------0-------0-2-2---|G
|-----------------------------2-2--------------2-2-----------------|D
|------------------------------------------------------------------|A
|------------------------------------------------------------------|E

..._________ Whatever you, Whatever You Want
|---------------------------------------------------------------|e
|-------------------0-(0)-------------0-(0)---------0-----------|B
|-0-(0)-------------------2-0-------0-------0-2-(2)---0-(0)-----|G
|-------3-2---2-2-2-------------2-2-------------------------3-2-|D
|---------------------------------------------------------------|A
|---------------------------------------------------------------|E
comments
print report bad tab
17 comments total. Showing first comments.
0 reply
Chestaufissen wrote on July 24 2005, 12:00 am

Motorhead did Triple H's theme dumbass!!! Drowning Pool probably wasn't even formed during 1998....F**king ***head

0 reply
Chestaufissen wrote on July 24 2005, 12:00 am

Oh and you said "All WWE Entrance Themes", ***ing dumb ***ing ***head, with a ***ing screwed up ***.

0 reply
Chestaufissen wrote on July 24 2005, 12:00 am

you mother***ing son of a bitch, whore, ***, and ***fukers

I want to post or [tab]
guest
You may want to rate the tab now too:
select rating
Please do not post tabs as comments. Select "correction" instead!