Oops, an error
Loading. Please wait.

Brian Marshall - Dawn Of Insanity Tab

137 views 1 this week
no commentswrite comment
1 2 3 4 5
please rate
Autoscroll
+/-
esc
set tempo
stop
Contributor
Difficulty
advanced
WARNING: You are trying to view
                                    content from Ultimate-Guitar.com
                                    in an unauthorized application,
                                    which is prohibited.

                                    Please use an official Ultimate
                                    Guitar Tabs application for iPhone,
                                    iPad or Android to access legitimate
                                    chords, guitar, bass, and drum tabs
                                    from Ultimate-Guitar.com database.

                                    Type "ultimate guitar tabs" in Apple
                                    App Store's or Android Market's
                                    search to find the application.
                                DAWN OF INSANITY
                          As recorded by Vintage Black

Music by Brian Marshall
Arranged by Brian Marshall
Transcribed by Brian Marshall

          E5                   G5                   F5                   A5
      0 2 2 x x x          3 5 5 x x x          1 3 3 x x x          5 7 7 x x x

          B5
      7 9 9 x x x

Gtr I (E A D G B E) - 'Brian'
Gtr II (E A D G B E) - 'Joe'
Gtr III (E A D G B E) - 'Joe 2'
Gtr IV (E A D G B E) - 'Brian 2'
Gtr V (E A D G B E) - 'Joe 3'

   Intro
    Fast Rock Q=122
   4/4
    Gtrs I, II, III
    W          W
||-----------|-------||
||o----------|------o||
||-----------|-------||
||-----------|-------||
||o----------|------o||
||-----------|-------||


    N.C.                                        E5              E5
    Gtr I
    PM|     PM|     PM|               PM------|   PM----|   PM
    S S S S S S S S S S S S S S S S   S S S S S E S S S S S S E S  4x
||----------------------------------|------------------------------||
||o---------------------------------|-----------------------------o||
||----------------------------------|------------------------------||
||----------------------------------|-----------2-------------2----||
||o-----2h5-----5p3-----3h5-7p5-3p2-|-----------2---------2---2---o||
||--0-0-----0-0-----0-0-------------|-0-0-0-2p0-0-0-0-0-0---0-0-0--||
|
|   Gtr II
|   PM|     PM|     PM|
|   S S S S S S S S S S S S S S S S   S S S S S E S S S S S S E S  4x
||----------------------------------|------------------------------||
||o---------------------------------|-----------------------------o||
||----------------------------------|------------------------------||
||------2h5-----5p3-----3h5-7p5-3p2-|-----------2---------2---2----||
||o---------------------------------|-------2---2-------------2---o||
||--0-0-----0-0-----0-0-------------|-0-0-0---0-0-0-0-0-0---0-0-0--||


   Pre-Verse / Guitar Solo 1
    E5        G5       F5       E5
    Gtr III
      S S S S  S S S S  S S S S  S S S S
      | | | |  | | | |  | | | |  | | | |
      / / / /  / / / /  / / / /  / / / /

    Gtr I
      Q        Q        Q        Q
||--/17-------15-------14-------15-------|
||o--------------------------------------|
||---------------------------------------|
||---------------------------------------|
||o--------------------------------------|
||---------------------------------------|
|
|   Gtr II
|     Q        Q        Q        Q
||---------------------------------------|
||o-/17-------15-------14-------15-------|
||---------------------------------------|
||---------------------------------------|
||o--------------------------------------|
||---------------------------------------|


  1.
  A5          G5          B5    A5    G5    E5
   S  S  S  S  S  S  S  S  S  S  S  S  S  S  S  S
   |  |  |  |  |  |  |  |  |  |  |  |  |  |  |  |
   /  /  /  /  /  /  /  /  /  /  /  /  /  /  /  /

   S  S  S  S  S  S  S  S  S  S  S  S  S  S  S  S
|-17-------15p14-15-17-19-17-19-22h24-22-19p17------||
|----19p17-------------------------------------19--o||
|---------------------------------------------------||
|---------------------------------------------------||
|--------------------------------------------------o||
|---------------------------------------------------||
|
|  S  S  S  S  S  S  S  S  S  S  S  S  S  S  S  S
|---------------------------------------------------||
|-17-------15p14-15-17-19p17-19-22h24-22-19p17-----o||
|----18p16-------------------------------------18---||
|---------------------------------------------------||
|--------------------------------------------------o||
|---------------------------------------------------||


  2.
  E5           G5          F5          E5
  Gtr III
    S  S  S  S  S  S  S  S  S  S  S  S  S  S  S  S
    |  |  |  |  |  |  |  |  |  |  |  |  |  |  |  |
    /  /  /  /  /  /  /  /  /  /  /  /  /  /  /  /

  Gtr I
    S  S  S  S  S  S  S  S  S  S  S  S  S  S  S  S
|-/24p22-19-17-19-------17h19-22h24p22-19-17-15p14-|
|-----------------22p19----------------------------|
|--------------------------------------------------|
|--------------------------------------------------|
|--------------------------------------------------|
|--------------------------------------------------|
|
| Gtr II
|   S  S  S  S  S  S  S  S  S  S  S  S  S  S  S  S
|--------------------------------------------------|
|-/24p22-19-17-19-------17h19-22h24p22-19-17-15p14-|
|-----------------21p18----------------------------|
|--------------------------------------------------|
|--------------------------------------------------|
|--------------------------------------------------|


  A5        G5       B5   A5  G5   E5
    S S S S  S S S S  S S S S  S S S S
    | | | |  | | | |  | | | |  | | | |
    / / / /  / / / /  / / / /  / / / /

    Q        Q        Q        Q
|-/17-------15-------14-------15-------|
|--------------------------------------|
|--------------------------------------|
|--------------------------------------|
|--------------------------------------|
|--------------------------------------|
|
|   Q        Q        Q        Q
|--------------------------------------|
|-/17-------15-------14-------15-------|
|--------------------------------------|
|--------------------------------------|
|--------------------------------------|
|--------------------------------------|


  E5                      G5                      F5                      E5
  Gtr III
   S     S     S     S     S     S     S     S     S     S     S     S     S     S     S     S
   |     |     |     |     |     |     |     |     |     |     |     |     |     |     |     |
   /     /     /     /     /     /     /     /     /     /     /     /     /     /     /     /

  Gtr I
   T  T  T  T  T  T  T  T  T  T  T  T  T  T  T  T  T  T  T  T  T  T  T  T  T  T  T  T  T  T  T  T
   T  T  T  T  T  T  T  T  T  T  T  T  T  T  T  T  T  T  T  T  T  T  T  T  T  T  T  T  T  T  T  T
|-------------------------------15h17-19p17-15h17-15p14-12h14-15h17-19h22h24p22-19p17-15----------|
|-------------------------15h17----------------------------------------------------------17h19p17-|
|-------------------14h16-------------------------------------------------------------------------|
|-------------15h17-------------------------------------------------------------------------------|
|-------15h17-------------------------------------------------------------------------------------|
|-15h17-------------------------------------------------------------------------------------------|
|
| Gtr II
|  T  T  T  T  T  T  T  T  T  T  T  T  T  T  T  T  T  T  T  T  T  T  T  T  T  T  T  T  T  T  T  T
|  T  T  T  T  T  T  T  T  T  T  T  T  T  T  T  T  T  T  T  T  T  T  T  T  T  T  T  T  T  T  T  T
|-------------------------------------------------------------------------------------------------|
|-------------------------------15h17-19p17-15h17-15p14-12h14-15h17-19h22h24p22-19p17-15----------|
|-------------------------15h17----------------------------------------------------------17h19p17-|
|-------------------15h17-------------------------------------------------------------------------|
|-------------15h17-------------------------------------------------------------------------------|
|-10h12-15h17-------------------------------------------------------------------------------------|


  A5          G5        B5    A5    G5    E5
   S  S   S S S S  S  S  S  S  S  S  S  S  S  S
   |  |   | | | |  |  |  |  |  |  |  |  |  |  |
   /  /   / / / /  /  /  /  /  /  /  /  /  /  /

          ~~~
   S  S   Q        S  S  S  S  S  S  S  S  S  S
|-------/19-------17-15----------15-14-15-17-15--|
|-19-22-----------------17-15-13-----------------|
|------------------------------------------------|
|------------------------------------------------|
|------------------------------------------------|
|------------------------------------------------|
|
|  S  S   Q        S  S  S  S  S  S  S  S  S  S
|------------------------------------------------|
|-------/19-------17p15----------15p14h15-17p15--|
|-19-22-----------------16p14-12-----------------|
|------------------------------------------------|
|------------------------------------------------|
|------------------------------------------------|


  E5         G5      F5      E5        E5        E5        E5
  Gtr III
    S  S S S S S S S S S S S S S S S   S S S S E S S S S E S S S S
    |  | | | | | | | | | | | | | | |   | | | |   | | | |   | | | |
    /  / / / / / / / / / / / / / / /   / / / /   / / / /   / / / /

  Gtr I
    >
    ~~~~
   +W                                  W
|-(15)-------------------------------|------------------------------||
|------------------------------------|------------------------------||
|------------------------------------|------------------------------||
|------------------------------------|------------------------------||
|------------------------------------|------------------------------||
|------------------------------------|------------------------------||
|
| Gtr II
|   >
|   ~~~~
|  +W                                  W
|------------------------------------|------------------------------||
|-(15)-------------------------------|------------------------------||
|------------------------------------|------------------------------||
|------------------------------------|------------------------------||
|------------------------------------|------------------------------||
|------------------------------------|------------------------------||


   Verse 1 & 2
    $
    E5          E5          E5
    Gtr I
    S S S S S S S S S S S S S S S S
||----------------------------------|
||o-5-5-5-5-8-8-8-8-6-6-6-6-5-5-5-5-|
||--x-x-x-x-x-x-x-x-x-x-x-x-x-x-x-x-|
||--2-2-2-2-5-5-5-5-3-3-3-3-2-2-2-2-|
||o---------------------------------|
||----------------------------------|
|
|   Gtr II
|   PM-------------------------------
|   S S S S E   S S S S E   S S S S
||----------------------------------|
||o---------------------------------|
||----------------------------------|
||--2-2-2-2-----2-2-2-2-----2-2-2-2-|
||o-2-2-2-2-----2-2-2-2-----2-2-2-2-|
||--0-0-0-0-----0-0-0-0-----0-0-0-0-|


                   E5              E5
    S  S  S  S S S S S  S  S  S  S S S S S
|-------------------------------------------|
|-/10-10-10-10-8-8-8-8-12-12-10-10-8-8-5-5--|
|---x--x--x--x-x-x-x-x--x--x--x--x-x-x-x-x--|
|--/7--7--7--7-5-5-5-5--9--9--7--7-5-5-2-2--|
|-------------------------------------------|
|-------------------------------------------|
|
|----------------------------------------|
|   S  S  S  S E   S S  S  S  E    S S S S
|-------------------------------------------|
|-------------------------------------------|
|-------------------------------------------|
|---2--2--2--2-----2-2--2--2-------2-2-2-2--|
|---2--2--2--2-----2-2--2--2-------2-2-2-2--|
|---0--0--0--0-----0-0--0--0-------0-0-0-0--|


  E5          E5          E5
  S S S S S S S S S S S S S S S S
|---------------------------------|
|-5-5-5-5-8-8-8-8-6-6-6-6-5-5-5-5-|
|-x-x-x-x-x-x-x-x-x-x-x-x-x-x-x-x-|
|-2-2-2-2-5-5-5-5-3-3-3-3-2-2-2-2-|
|---------------------------------|
|---------------------------------|
|
| PM-------------------------------
| S S S S E   S S S S E   S S S S
|---------------------------------|
|---------------------------------|
|---------------------------------|
|-2-2-2-2-----2-2-2-2-----2-2-2-2-|
|-2-2-2-2-----2-2-2-2-----2-2-2-2-|
|-0-0-0-0-----0-0-0-0-----0-0-0-0-|


                                      To Coda
                       E5
    S  S  S  S S S S S  S  S  S  S  S    S S S  3x
|-----------------------------------------------||
|-/10-10-10-10-8-8-8-8-12-12-10-10--8----8-5-5-o||
|---x--x--x--x-x-x-x-x--x--x--x--x--x----x-x-x--||
|--/7--7--7--7-5-5-5-5--9--9--7--7--5----5-2-2--||
|----------------------------------------------o||
|-----------------------------------------------||
|
|-----------|      PM-----|         ~~~~~
|   S  S  S  S E   S S  S  S  E     Q           3x
|-----------------------------------------------||
|----------------------------------[3]b5-------o||
|-----------------------------------------------||
|---2--2--2--2-----2-2--2--2--------------------||
|---2--2--2--2-----2-2--2--2-------------------o||
|---0--0--0--0-----0-0--0--0--------------------||


   Interlude
    Em              Fm              Em              Em      Gm
    Gtr II
    W               W               W               H       H
||----------------|---------------|---------------|-------------------||
||o---------------|---------------|---------------|------------------o||
||----------------|---------------|---------------|-------------------||
||--2-------------|-3-------------|-2-------------|-3-------5---------||
||o-2-------------|-3-------------|-2-------------|-3-------5--------o||
||--0-------------|-1-------------|-0-------------|-1-------3---------||
|
|   Gtrs IV, V
|   E E E Q.   Q    E E E Q.   Q    E E E Q.   Q    E E E E E E E E
||----------------|---------------|---------------|-------------------||
||o---------------|---------------|---------------|------------------o||
||--------0----2--|-------1----3--|-------0----2--|-------1-------3---||
||------2---------|-----3---------|-----2---------|-----3-------5-----||
||o---2-----------|---3-----------|---2-----------|---3-------5------o||
||--0-------------|-1-------------|-0-------------|-1-------3---------||


 Guitar Solo 2
  E5                F5
  Gtr III
    W                W
    |                |
    /                /

  Gtr I
    ~~~                                     ~~~
    W                E  E  E  E   E  E  E   E
|-----------------|---------------------------|
|-/17-------------|-15-17-19-22--19-17-15-/19-|
|-----------------|---------------------------|
|-----------------|---------------------------|
|-----------------|---------------------------|
|-----------------|---------------------------|
|
| Gtrs IV, V
|   E E E Q.   Q     E  E  E  Q.        Q
|-----------------|---------------------------|
|-----------------|---------------------------|
|---------0----2--|-----------1---------3-----|
|-------2---------|--------3------------------|
|-----2-----------|-----3---------------------|
|---0-------------|--1------------------------|


  E5                                    F5       G5
    W                                    H        H
    |                                    |        |
    /                                    /        /

 ~~~~~~                                  ~~~~~~~~~~~
   +H          S  S  S  S  S  S  S  S    H        H
|-------------------------------------|-------------------|
|-(19)--------17p15----------15p14-12-|-15-------14-------|
|-------------------16p14h16----------|-------------------|
|-------------------------------------|-------------------|
|-------------------------------------|-------------------|
|-------------------------------------|-------------------|
|
|   E  E E Q.              Q             E E E E  E E E E
|-------------------------------------|-------------------|
|-------------------------------------|-------------------|
|----------0---------------2----------|--------1--------3-|
|--------2----------------------------|------3--------5---|
|------2------------------------------|----3--------5-----|
|---0---------------------------------|--1--------3-------|


  E5                                                  F5
   W                                                    W
   |                                                    |
   /                                                    /

                                                  ~~~~~~~~~                     ~~~~
   S  S  S  S  S  S  S   S  S  S  S  S  S  S  S   S    +H           S  S  S  S  Q
|-16p14-15h17p15-14p12--10h12-14h15-17-19-------/17-|-(17)--------/19-17-15-14-12--|
|-----------------------------------------17p15-----|------------------------------|
|---------------------------------------------------|------------------------------|
|---------------------------------------------------|------------------------------|
|---------------------------------------------------|------------------------------|
|---------------------------------------------------|------------------------------|
|
|  E     E     E     Q.                 Q               E  E E Q.               Q
|---------------------------------------------------|------------------------------|
|---------------------------------------------------|------------------------------|
|--------------------0------------------2-----------|----------1----------------3--|
|--------------2------------------------------------|--------3---------------------|
|--------2------------------------------------------|------3-----------------------|
|--0------------------------------------------------|---1--------------------------|


  E5                           F5                      G5
    W                           H                       H
    |                           |                       |
    /                           /                       /

 ~~~~~~~~~~~
   +Q     H       S  S  S  S    S  S  S  S  S  S  S  S  S  S  S  S  S  S  S  S
|-(12)---10------12h14p12-10-|-12-14-15-17-15-------17h19----19-17-15h17p15p14----|
|----------------------------|----------------17p15-------22----------------------|
|----------------------------|----------------------------------------------------|
|----------------------------|----------------------------------------------------|
|----------------------------|----------------------------------------------------|
|----------------------------|----------------------------------------------------|
|
|   E  E  E Q.    Q             E     E     E     E     E     E     E     E
|----------------------------|----------------------------------------------------|
|----------------------------|----------------------------------------------------|
|-----------0-----2----------|--------------------1-----------------------3-------|
|---------2------------------|--------------3-----------------------5-------------|
|------2---------------------|--------3-----------------------5-------------------|
|---0------------------------|--1-----------------------3-------------------------|


  E5                                                 F5
   W                                                   W
   |                                                   |
   /                                                   /

                                                       \7/
                                                 ~~~~~~~~~~
   S  S  S  S  S  S  S   S  S  S  S  S  S  S  S  S    +Q.       S  S  S  S  S  S  S  S  S  S
|-15h17p15-14p12h14-17--15p14h15-17p15-14-12p10h12-|-(12)---------------------------14h15-17-|
|--------------------------------------------------|--------------------------13h15----------|
|--------------------------------------------------|--------------------12p10----------------|
|--------------------------------------------------|-----------10h12-14----------------------|
|--------------------------------------------------|-----------------------------------------|
|--------------------------------------------------|-----------------------------------------|
|
|  E     E     E     Q.                 Q              E   E E  Q.                Q
|--------------------------------------------------|-----------------------------------------|
|--------------------------------------------------|-----------------------------------------|
|--------------------0------------------2----------|------------1-----------------3----------|
|--------------2-----------------------------------|---------3-------------------------------|
|--------2-----------------------------------------|-------3---------------------------------|
|--0-----------------------------------------------|---1-------------------------------------|


  E5                        F5                      G5
   W                         H                        H
   |                         |                        |
   /                         /                        /

          ~~~~~~~~~~~~~                               ~~~~
   S  S   Q    Q    Q.       S  S  S  S  S  S  S  S   H
|-15h17-/19---17---15-----|-17h19p17-15p14-12h14-15-/19\--------||
|-------------------------|-------------------------------------||
|-------------------------|-------------------------------------||
|-------------------------|-------------------------------------||
|-------------------------|-------------------------------------||
|-------------------------|-------------------------------------||
|
|                           Gtrs II, III
|  E      E E  Q.      Q     E     E     E     E      E  E E E
|-------------------------|-------------------------------------||
|-------------------------|-------------------------------------||
|--------------0-------2--|--------------------1-------------3--||
|-----------2-------------|--------------3-----------------5----||
|---------2---------------|--------3---------------------5------||
|--0----------------------|--1------------------------3---------||


   Chorus
    $$
    E5              G5                E5        E5        G5
    Gtr I
    PM|     PM|     PM|               PM|     PM|     PM|
    S S S S S S S S S S S S S S S S   S S S S S S S S S S S S  S    S S S
||----------------------------------|--------------------------------------|
||o---------------------------------|--------------------------------------|
||----------------------------------|--------------------------------------|
||----------------------------------|--------------------------------------|
||o-----2h5-----5p3-----3h5-7p5-3p2-|-----2h5-----5p3-----3h5--7p===5-3p2--|
||--0-0-----0-0-----0-0-------------|-0-0-----0-0-----0-0------------------|
|
|   Gtr II
|                                     PM--|       PM----|
|   H               H                 S S S S E   S S S S E    Q
||----------------------------------|--------------------------------------|
||o---------------------------------|-------------------------[3]b5--------|
||----------------------------------|--------------------------------------|
||--2---------------5---------------|-2-2-2-2-----2-2-2-2------------------|
||o-2---------------5---------------|-2-2-2-2-----2-2-2-2------------------|
||--0---------------3---------------|-0-0-0-0-----0-0-0-0------------------|


                                                      D.S. al Coda
                                                      D.S. al Coda
  E5              G5
  PM|     PM|     PM|               PM|     PM|     PM|
  S S S S S S S S S S S S S S S S   S S S S S S S S S S S S S S S S
|---------------------------------|----------------------------------||
|---------------------------------|---------------------------------o||
|---------------------------------|----------------------------------||
|---------------------------------|----------------------------------||
|-----2h5-----5p3-----3h5-7p5-3p2-|-----2h5-----5p3-----3h5-7p5-3p2-o||
|-0-0-----0-0-----0-0-------------|-0-0-----0-0-----0-0--------------||
|
|                                   PM|     PM|     PM|
| H               H                 S S S S S S S S S S S S S S S S
|---------------------------------|----------------------------------||
|---------------------------------|---------------------------------o||
|---------------------------------|----------------------------------||
|-2---------------5---------------|-----2h5-----5p3-----3h5-7p5-3p2--||
|-2---------------5---------------|---------------------------------o||
|-0---------------3---------------|-0-0-----0-0-----0-0--------------||


 Guitar Solo 3
  &
  E5                                     G5
  Gtr I
  T T T T T T T  T T T T   T  T  T  T  T  T  T  T  T  T  T  T  T  T  T  T  T  T  T  T  T
  T T T T T T T  T T T T   T  T  T  T  T  T  T  T  T  T  T  T  T  T  T  T  T  T  T  T  T
|------------------7h9p7-/10-14p12-14h15p14h15-17p15-19h22p19-17p15p14-17h19p17-15p14h15-|
|-------------8h10-----------------------------------------------------------------------|
|---------7h9----------------------------------------------------------------------------|
|-----7h9--------------------------------------------------------------------------------|
|-7h9------------------------------------------------------------------------------------|
|----------------------------------------------------------------------------------------|
|
| Gtr II
| H                                       H
|----------------------------------------------------------------------------------------|
|----------------------------------------------------------------------------------------|
|----------------------------------------------------------------------------------------|
|-2---------------------------------------5----------------------------------------------|
|-2---------------------------------------5----------------------------------------------|
|-0---------------------------------------3----------------------------------------------|


  E5                               E5                G5
   T  T  T  T  T  T  T  T  T  T  S  S  S  S  S  S  S  S  S  S   S
|-17p15----------15h17h19-22p19-19-17p15-14h15p14-12p10h12-14-/15-|
|-------17p15h17--------------------------------------------------|
|-----------------------------------------------------------------|
|-----------------------------------------------------------------|
|-----------------------------------------------------------------|
|-----------------------------------------------------------------|
|
|  PM---------|                     PM------|
|  S     S     S     S     E        S  S  S  S  E     Q
|-----------------------------------------------------------------|
|-----------------------------------------------------------------|
|-----------------------------------------------------------------|
|--2-----2-----2-----2--------------2--2--2--2--------5-----------|
|--2-----2-----2-----2--------------2--2--2--2--------5-----------|
|--0-----0-----0-----0--------------0--0--0--0--------3-----------|


  E5                G5                        E5          E5        G5
    ~~~~                                        ~~~
   +Q    S  S  S  S  S  S  S  S  S  S  S  S     W
|-(15)--14h15-17-------15h17-14-15h17-19h22-|-/24-----------------------||
|----------------19p17----------------------|---------------------------||
|-------------------------------------------|---------------------------||
|-------------------------------------------|---------------------------||
|-------------------------------------------|---------------------------||
|-------------------------------------------|---------------------------||
|
|                                               PM--|     PM----|
|   H                H                          S S S S E S S S S E Q
|-------------------------------------------|---------------------------||
|-------------------------------------------|---------------------------||
|-------------------------------------------|---------------------------||
|---2----------------5----------------------|---2-2-2-2---2-2-2-2---5---||
|---2----------------5----------------------|---2-2-2-2---2-2-2-2---5---||
|---0----------------3----------------------|---0-0-0-0---0-0-0-0---3---||


   Revisit Intro
    N.C.                                        E5              E5
    Gtr I
    PM|     PM|     PM|               PM------|   PM----|   PM
    S S S S S S S S S S S S S S S S   S S S S S E S S S S S S E S  4x
||----------------------------------|------------------------------||
||o---------------------------------|-----------------------------o||
||----------------------------------|------------------------------||
||----------------------------------|-----------2-------------2----||
||o-----2h5-----5p3-----3h5-7p5-3p2-|-----------2---------2---2---o||
||--0-0-----0-0-----0-0-------------|-0-0-0-2p0-0-0-0-0-0---0-0-0--||
|
|   Gtr II
|   PM|     PM|     PM|
|   S S S S S S S S S S S S S S S S   S S S S S E S S S S S S E S  4x
||----------------------------------|------------------------------||
||o---------------------------------|-----------------------------o||
||----------------------------------|------------------------------||
||------2h5-----5p3-----3h5-7p5-3p2-|-----------2---------2---2----||
||o---------------------------------|-------2---2-------------2---o||
||--0-0-----0-0-----0-0-------------|-0-0-0---0-0-0-0-0-0---0-0-0--||


   Verse 3
                                             D.S.S. al Dbl. Coda
    N.C.                                        E5              E5
    Gtr I
    PM|     PM|     PM|               PM------|   PM----|   PM
    S S S S S S S S S S S S S S S S   S S S S S E S S S S S S E S  3x
||----------------------------------|------------------------------||
||o---------------------------------|-----------------------------o||
||----------------------------------|------------------------------||
||----------------------------------|-----------2-------------2----||
||o-----2h5-----5p3-----3h5-7p5-3p2-|-----------2---------2---2---o||
||--0-0-----0-0-----0-0-------------|-0-0-0-2p0-0-0-0-0-0---0-0-0--||
|
|   Gtr II
|   PM|     PM|     PM|
|   S S S S S S S S S S S S S S S S   S S S S S E S S S S S S E S  3x
||----------------------------------|------------------------------||
||o---------------------------------|-----------------------------o||
||----------------------------------|------------------------------||
||------2h5-----5p3-----3h5-7p5-3p2-|-----------2---------2---2----||
||o---------------------------------|-------2---2-------------2---o||
||--0-0-----0-0-----0-0-------------|-0-0-0---0-0-0-0-0-0---0-0-0--||


 Outro
  &&
  E5
  Gtr II
   S S S S  E S S S S E S S S S    S S  S S  E  S S  S  S  E     S  S  S  S
   | | | |    | | | |   | | | |    | |  | |     | |  |  |        |  |  |  |
   / / / /    / / / /   / / / /    / /  / /     / /  /  /        /  /  /  /

  Gtr I
   Q        Q     Q     Q          E    E    E  E    S  S  S  S  S  S  S  S
|-------------------------------|-------------------------------------------|
|-------------------------------|-------------------------------15h17p15-14-|
|-------------------------------|----------------------------14-------------|
|-/7-------10-----9-----7-------|-10---12---14h15---17h19p17----------------|
|-------------------------------|-------------------------------------------|
|-------------------------------|-------------------------------------------|


   S  S  S  S  E     S  S  S  S  E     S  S  S  S
   |  |  |  |        |  |  |  |        |  |  |  |
   /  /  /  /        /  /  /  /        /  /  /  /

   S  S  S  S  S  S  S  S  S  S  S  S  S  S  S  S
|-------------15p14h15-17-19h22p19-17p15-------17-|
|-12-14-15h17----------------------------17p15----|
|-------------------------------------------------|
|-------------------------------------------------|
|-------------------------------------------------|
|-------------------------------------------------|


  E5
   S  S  S  S  E     S  S  S  S  E     S  S  S  S
   |  |  |  |        |  |  |  |        |  |  |  |
   /  /  /  /        /  /  /  /        /  /  /  /

   S  S  S  S  S  S  S  S  S  S  S  S  S  S  S  S
|-19p17-15-------------17-15p14h15-17p15h17-19-22-|
|----------17p15h17-19----------------------------|
|-------------------------------------------------|
|-------------------------------------------------|
|-------------------------------------------------|
|-------------------------------------------------|


   S  S  S  S  E     S  S  S  S  E     S  S  S  S    S  S  S  S  E     S  S  S  S  E     S  S  S  S
   |  |  |  |        |  |  |  |        |  |  |  |    |  |  |  |        |  |  |  |        |  |  |  |
   /  /  /  /        /  /  /  /        /  /  /  /    /  /  /  /        /  /  /  /        /  /  /  /

   S  S  S  S  S  S  S  S  S  S  S  S  S  S  S  S    S  S  S  S  S  S  S  S  S  S  S  S  S  S  S  S
|-24p22-19-17p15h17-19-22-19-17----------------19-|----------19-17-15p14h15-14-12p10-12-14-15h17p15-|
|-------------------------------19-17-15h17p15----|-22h24p22----------------------------------------|
|-------------------------------------------------|-------------------------------------------------|
|-------------------------------------------------|-------------------------------------------------|
|-------------------------------------------------|-------------------------------------------------|
|-------------------------------------------------|-------------------------------------------------|


  E5
   S     S     S     S     E           S     S     S     S     E           S     S     S     S
   |     |     |     |                 |     |     |     |                 |     |     |     |
   /     /     /     /                 /     /     /     /                 /     /     /     /

   T  T  T  T  T  T  T  T  T  T  T  T  T  T  T  T  T  T  T  T  T  T  T  T  T  T  T  T  T  T  T  T
   T  T  T  T  T  T  T  T  T  T  T  T  T  T  T  T  T  T  T  T  T  T  T  T  T  T  T  T  T  T  T  T
|-17h19-22p19-17p15-14h15-17----------17p15p14-12h14-15h17p15-14h15-------17p15h17-19h22-19p17-15-|
|----------------------------19p17p15-------------------------------17p15-------------------------|
|-------------------------------------------------------------------------------------------------|
|-------------------------------------------------------------------------------------------------|
|-------------------------------------------------------------------------------------------------|
|-------------------------------------------------------------------------------------------------|


    S  S  S  S  E     S  S  S  S  E     S  S  S  S     S S S S  E S S  S S E  S S S S
    |  |  |  |        |  |  |  |        |  |  |  |     | | | |    | |  | |    | | | |
    /  /  /  /        /  /  /  /        /  /  /  /     / / / /    / /  / /    / / / /

    S  S  S  S  S  S  S  S  S  S  S  S  S  S  S  S     Q        Q      Q      Q
|-/17-15p14-12p10-------12h14-15p14h15-17h19p17-15-|-/14-------15-----17-----15--------|
|-----------------12h14----------------------------|-----------------------------------|
|--------------------------------------------------|-----------------------------------|
|--------------------------------------------------|-----------------------------------|
|--------------------------------------------------|-----------------------------------|
|--------------------------------------------------|-----------------------------------|


  E5
   S     S     S     S     E           S     S     S     S     E           S     S     S     S
   |     |     |     |                 |     |     |     |                 |     |     |     |
   /     /     /     /                 /     /     /     /                 /     /     /     /

   T  T  T  T  T  T  T  T  T  T  T  T  T  T  T  T  T  T  T  T  T  T  T  T  T  T  T  T  T  T  T T
   T  T  T  T  T  T  T  T  T  T  T  T  T  T  T  T  T  T  T  T  T  T  T  T  T  T  T  T  T  T  T T
|-------------------------------15h17h19-17p15-17p15----------19-15h17p15-14p12-10h12-14p12-10p8-|
|-------------------------15h17----------------------17p15h17------------------------------------|
|-------------------14h16------------------------------------------------------------------------|
|-------------15h17------------------------------------------------------------------------------|
|-------15h17------------------------------------------------------------------------------------|
|-15h17------------------------------------------------------------------------------------------|


   S S  S S  E    S  S  S  S  E     S  S  S  S    S S S S  E S S  S S E  S S S S
   | |  | |       |  |  |  |        |  |  |  |    | | | |    | |  | |    | | | |
   / /  / /       /  /  /  /        /  /  /  /    / / / /    / /  / /    / / / /

   S S  S S  S S  S  S  S  S  S  S  S  S  S  S    Q        Q      Q      Q
|-10p8-10p8-10p8-10h12-14p12h14-15-17-15-14-12-|-10-------12-----14-----15--------|
|----------------------------------------------|----------------------------------|
|----------------------------------------------|----------------------------------|
|----------------------------------------------|----------------------------------|
|----------------------------------------------|----------------------------------|
|----------------------------------------------|----------------------------------|


  E5
   S     S S S E S S  S     S E S S S S
   |     | | |   | |  |     |   | | | |
   /     / / /   / /  /     /   / / / /

                      T
   H                  H
|-17tr19-------------15tr19-------------|
|---------------------------------------|
|---------------------------------------|
|---------------------------------------|
|---------------------------------------|
|---------------------------------------|


   S     S S S E S S  S     S E S S S S    S     S S S E S S  S     S E S S S S
   |     | | |   | |  |     |   | | | |    |     | | |   | |  |     |   | | | |
   /     / / /   / /  /     /   / / / /    /     / / /   / /  /     /   / / / /

   T                  T                                       T
   H                  H                    H                  H
|-14tr19-------------12tr19-------------|-17tr19-------------15tr19-------------|
|---------------------------------------|---------------------------------------|
|---------------------------------------|---------------------------------------|
|---------------------------------------|---------------------------------------|
|---------------------------------------|---------------------------------------|
|---------------------------------------|---------------------------------------|


  E5
   S  S  S  S  E     S  S  S  S  E     S  S  S  S
   |  |  |  |        |  |  |  |        |  |  |  |
   /  /  /  /        /  /  /  /        /  /  /  /

   S  S  S  S  S  S  S  S  S  S  S  S  S  S  S  S
|-17p15-------17p15h17-------15h17-19p17-15-------|
|-------17p15----------15h17----------------17p15-|
|-------------------------------------------------|
|-------------------------------------------------|
|-------------------------------------------------|
|-------------------------------------------------|


   S S S S   E S S  S S  E  S S  S S    S S  S S  E  S S  S S E  S  S  S  S
   | | | |     | |  | |     | |  | |    | |  | |     | |  | |    |  |  |  |
   / / / /     / /  / /     / /  / /    / /  / /     / /  / /    /  /  /  /

   Q         Q      E    E  E    E      E    E    E  E    Q      S  S  S  S
|----------/19-----17---15p14---15---|-14---12---10-12---14-----15-17-15-14--|
|-17---------------------------------|---------------------------------------|
|------------------------------------|---------------------------------------|
|------------------------------------|---------------------------------------|
|------------------------------------|---------------------------------------|
|------------------------------------|---------------------------------------|


  E5
   S S S S E S S  S S E S S S S     S   S S S E S S S S E S S S S
   | | | |   | |  | |   | | | |     |   | | |   | | | |   | | | |
   / / / /   / /  / /   / / / /     /   / / /   / / / /   / / / /

                                    >
   ~~~~~~~~~~~~~~~~~~~~~~~~~~~~~~~~~~~~~
   H              H                +W
|-12-------------10-------------|-(10)\---------------------------|
|-------------------------------|---------------------------------|
|-------------------------------|---------------------------------|
|-------------------------------|---------------------------------|
|-------------------------------|---------------------------------|
|-------------------------------|---------------------------------|


  E5
  S S S S E S S S S E S S S S   S S S S E S S S S E S S S S   W
  | | | |   | | | |   | | | |   | | | |   | | | |   | | | |
  / / / /   / / / /   / / / /   / / / /   / / / /   / / / /

  PM------------------------------------------------------|
  S S S S E S S S S E S S S S   S S S S E S S S S E S S S S   W
|-----------------------------|-----------------------------|------*|
|-----------------------------|-----------------------------|------*|
|-----------------------------|-----------------------------|------*|
|-2-2-2-2---2-2-2-2---2-2-2-2-|-2-2-2-2---2-2-2-2---2-2-2-2-|------*|
|-2-2-2-2---2-2-2-2---2-2-2-2-|-2-2-2-2---2-2-2-2---2-2-2-2-|------*|
|-0-0-0-0---0-0-0-0---0-0-0-0-|-0-0-0-0---0-0-0-0---0-0-0-0-|------*|


Duration Legend
---------------
W - whole; H - half; Q - quarter; E - 8th; S - 16th; T - 32nd; X - 64th; a - acciaccatura
+ - note tied to previous; . - note dotted; .. - note double dotted
Uncapitalized letters represent notes that are staccato (1/2 duration)
Irregular groupings are notated above the duration line
Duration letters will always appear directly above the note/fret number it represents the
duration for.  Duration letters with no fret number below them represent rests.  Multi-
bar rests are notated in the form Wxn, where n is the number of bars to rest for.  Low
melody durations appear below the staff

Tablature Legend
----------------
 h   - hammer-on
 p   - pull-off
 b   - bend
 pb  - pre-bend
 r   - bend release (if no number after the r, then release immediately)
 /\  - slide into or out of (from/to "nowhere")
 s   - legato slide
 S   - shift slide
<n>  - natural harmonic
[n]  - artificial harmonic
n(n) - tapped harmonic
 ~   - vibrato
 tr  - trill
 T   - tap
 TP  - trem. picking
 PM  - palm muting
\n/  - tremolo bar dip; n = amount to dip
 \n  - tremolo bar down
 n/  - tremolo bar up
/n\  - tremolo bar inverted dip
 =   - hold bend; also acts as connecting device for hammers/pulls
 <>  - volume swell (louder/softer)
 x   - on rhythm slash represents muted slash
 o   - on rhythm slash represents single note slash

Misc Legend
-----------
 |  - bar
||  - double bar
||o - repeat start
o|| - repeat end
*|  - double bar (ending)
 :  - bar (freetime)
 $  - Segno
 &  - Coda
Tempo markers - <E/E./Q/Q./H/H.> = BPM(8/16=s8/s16), where s8 = swing 8ths, s16 = swing 16ths
comments
We did not receive enough feedback on this tab! Please rate:
print report bad tab
1 2 3 4 5
I want to post or [tab]
guest
You may want to rate the tab now too:
select rating
Please do not post tabs as comments. Select "correction" instead!