Oops, an error
Loading. Please wait.

Jeroen0011 - Scope Lockdown Guitar Improvisation Tab

238 views 1 this week
no commentswrite comment
1 2 3 4 5
excellent!
x 1
add to favorites launch autoscroll
font size
0
reset
Autoscroll
+/-
esc
set tempo
stop
Contributor
WARNING: You are trying to view
                                    content from Ultimate-Guitar.com
                                    in an unauthorized application,
                                    which is prohibited.

                                    Please use an official Ultimate
                                    Guitar Tabs application for iPhone,
                                    iPad or Android to access legitimate
                                    chords, guitar, bass, and drum tabs
                                    from Ultimate-Guitar.com database.

                                    Type "ultimate guitar tabs" in Apple
                                    App Store's or Android Market's
                                    search to find the application.
It's in standard tuning

+ here's my cover (could be really handy):
http://www.youtube.com/watch?v=OXy14H6CqaY


(/) Slide Up  (\) Slide Down  (h) Hammer On  (p) Pull Off  (b) Bend (r) Release (v) Vibrato

E|---------------0-----------------------0--------------0--------0-----------------------0-----|
B|------------1--------3--0--1--0-----1--------3--0--1--------1--------3--0--1--0-----1--------|
G|---------2--------2--------------2--------2--------------2--------2--------------2-----------|
D|--7------------------------------------------------------------------------------------------|
A|--7------------------------------------------------------------------------------------------|
E|--5------------------------------------------------------------------------------------------|


E|---------------------------------------------------------------------------------------------|
B|-----3--0--1---------------------------------------------------------------------------------|
G|--2----------------9--7h9--9b10r9--7v----5v--5v---------9--7p9--5--5/7-------9--7h9--9b10r9--|
D|--------------3/7--------------------------------8--7v------------------3/7------------------|
A|---------------------------------------------------------------------------------------------|
E|---------------------------------------------------------------------------------------------|


E|-------------------------------------------------------------------------------------------|
B|-------------------------------------------------------------------------------------------|
G|--7--5v--5v---------9--7p9--5--5/7------9b10r9--7v---9b10r9--7v---9b10r9--7v---9b10r9--7v--|
D|-------------8--7v-------------------------------------------------------------------------|
A|-------------------------------------------------------------------------------------------|
E|-------------------------------------------------------------------------------------------|


E|------------------------------------------------------------|
B|------------------------------------------------------------|
G|--9b10r9--7v---9b10r9--7v---9b10r9--7v----------------------|
D|-----------------------------------------2--2---------------|
A|-----------------------------------------0--0---------------|
E|------------------------------------------------------------|


E|-----------------------------------------------------------------------------------------|
B|-----------------------------------------------------------------------------------------|
G|-----------------------------------------------------------------------------------------|
D|--2-----2-2----------------------2--2------3--5--7-7-----7-----------10-10---10----------|
A|--0--2-------0--3--0--5--2--3-3--------0--------------8-----8--7--8--------7----7--------|
E|-----------------------------------------------------------------------------------------|


E|-----------------------------------------------------------------------------------------|
B|-----------------------------------------------------------------------------------------|
G|-----------------------------------------------------------------------------------------|
D|--------2-2----------------------2--2-----3--5--7-7-----7-----10----9-9----9-------------|
A|--0--2-------0--3--0--5--2--3-3--------0-------------8-----8-----12-----10---10----------|
E|-----------------------------------------------------------------------------------------|


E|----------------------------------------------------------------|
B|----------------------------------------------------------------|
G|-------9--7h9--9b10r9--7v----5--5---------9--7p9--5--5/7--------|
D|--3/7------------------------------8--7v------------------12\2--|
A|----------------------------------------------------------12\2--|
E|----------------------------------------------------------------|


E|-----------------------------------------------------------------------------------------|
B|-----------------------------------------------------------------------------------------|
G|-----------------------------------------------------------------------------------------|
D|--2-----2-2----------------------2--2------3--5--7-7-----7-----------10-10---10----------|
A|--0--2-------0--3--0--5--2--3-3--------0--------------8-----8--7--8--------7----7--------|
E|-----------------------------------------------------------------------------------------|


E|-----------------------------------------------------------------------------------------|
B|-----------------------------------------------------------------------------------------|
G|-----------------------------------------------------------------------------------------|
D|--------2-2----------------------2--2-----3--5--7-7-----7-----10----9-9----9-------------|
A|--0--2-------0--3--0--5--2--3-3--------0-------------8-----8-----12-----10---10----------|
E|-----------------------------------------------------------------------------------------|


E|-----------------------------------------------------------------------------------------|
B|-----------------------------------------------------------------------------------------|
G|-----------------------------------------------------------------------------------------|
D|--------2-2----------------------2--2------3--5--7-7-----7-----------10-10---10----------|
A|--0--2-------0--3--0--5--2--3-3--------0--------------8-----8--7--8--------7----7--------|
E|-----------------------------------------------------------------------------------------|


E|-----------------------------------------------------------------------------------------|
B|-----------------------------------------------------------------------------------------|
G|-----------------------------------------------------------------------------------------|
D|--------2-2----------------------2--2-----3--5--7-7-----7-----10----9-9----9-------------|
A|--0--2-------0--3--0--5--2--3-3--------0-------------8-----8-----12-----10---10----------|
E|-----------------------------------------------------------------------------------------|


E|----------------------------------------------------------------|
B|----------------------------------------------------------------|
G|-------9--7h9--9b10r9--7v----5--5---------9--7p9--5--5/7--------|
D|--3/7------------------------------8--7v------------------12\2--|
A|----------------------------------------------------------12\2--|
E|----------------------------------------------------------------|


E|-----------------------------------------------------------------------------------------|
B|-----------------------------------------------------------------------------------------|
G|-----------------------------------------------------------------------------------------|
D|--2-----2-2----------------------2--2-----3--5--7-7-----7-----------10-10---10-----------|
A|--0--2-------0--3--0--5--2--3-3--------0-------------8-----8--7--8--------7----7---------|
E|-----------------------------------------------------------------------------------------|


E|-----------------------------------------------------------------------------------------|
B|-----------------------------------------------------------------------------------------|
G|-----------------------------------------------------------------------------------------|
D|--------2-2----------------------2--2-----3--5--7-7-----7-----10----9-9----9-------------|
A|--0--2-------0--3--0--5--2--3-3--------0-------------8-----8-----12-----10---10----------|
E|-----------------------------------------------------------------------------------------|


E|-----------------------------------------------------------------------------------------|
B|-----------------------------------------------------------------------------------------|
G|-----------------------------------------------------------------------------------------|
D|--------2-2----------------------2--2-----3--5--7-7-----7-----------10-10---10-----------|
A|--0--2-------0--3--0--5--2--3-3--------0-------------8-----8--7--8--------7----7---------|
E|-----------------------------------------------------------------------------------------|


E|-----------------------------------------------------------------------------------------|
B|-----------------------------------------------------------------------------------------|
G|-----------------------------------------------------------------------------------------|
hD|-------2-2----------------------2--2-----3--5--7-7-----7-----10----9-9----9-------------|
A|--0--2-------0--3--0--5--2--3-3--------0-------------8-----8-----12-----10---10----------|
E|-----------------------------------------------------------------------------------------|


E|--------------------------------------------------------------------|
B|--------------------------------------------------------------------|
G|-------9--7h9--9b10r9--7v----5--5---------9--7p9--5--5/7------------|
D|--3/7------------------------------8--7v---------------------7-7-7--|
A|-------------------------------------------------------------7-7-7--|
E|-------------------------------------------------------------5-5-5--|


E|---------------------------------------------------------------------------------------|
B|---------         |   (played whit Palm muting)   -------------------------------------|
G|---------------------------------------------------------------------------------------|
D|-|----------------6h7-7----------------6h7--7-7-----------------6h7-7-------------|-7--|
A|-|-7-7---7-7--77--6h7-7--7-7---7-7--7--6h7--7-7--7-7---5-7-77---6h7-7---7-7--7777-|-7--|
E|-|-5-5---5-5--55---------5-5---5-5--5------------5-7---5-7-55-----------5-5--5555-|-5--|


E|------------------------------------------------------------------------------------|
B|------------------------------------------------------------------------------------|
G|------------------------------------------------------------------------------------|
D|--7-7---7--7--7-7-7--7-7--6h7-7--7-7---7--7--7-7-7--7--6h7--7-7--7-7---7--7--7-7-7--|
A|--7-7---7--7--7-7-7--7-7--6h7-7--7-7---7--7--7-7-7--7--6h7--7-7--7-7---7--7--7-7-7--|
E|--5-5---5--5--5-5-5--5-5---------5-5---5--5--5-5-5--5------------5-5---5--5--5-5-5--|


E|------------------------------------------------------------------------------------------------|
B|------------------------------------------------------------------------------------------------|
G|------------------------------------------------------------------------------------------------|
D|-7-7--6h7-7--7-7---7-7-7--7-7-7----7-7---7--7--7-7-7--7-7--6h7-7--7-7---7--7--7-7-7--7--6h7--7-7|
A|-7-7--6h7-7--7-7---7-7-7--7-7-7----7-7---7--7--7-7-7--7-7--6h7-7--7-7---7--7--7-7-7--7--6h7--7-7|
E|-5-5---------5-5---5-5-5--5-5-5----5-5---5--5--5-5-5--5-5---------5-5---5--5--5-5-5--5----------|


E|----------------------------------------------------------------------------------------|
B|----------------------------------------------------------------------------------------|
G|----------------------------------------------------------------------------------------|
D|--7-7---7--7--7-7-7--7-7--6h7-7--7-7--7-7-7--7-77-66-55-33--7777-7-7--7-7-7--7-7--6h7-7-|
A|--7-7---7--7--7-7-7--7-7--6h7-7--7-7--7-7-7--7-77-66-55-33--7777-7-7--7-7-7--7-7--6h7-7-|
E|--5-5---5--5--5-5-5--5-5---------5-5--5-5-5--5--------------5555-5-5--5-5-5--5-5--------|


E|---------------------------------------------------------------------------------------|
B|---------------------------------------------------------------------------------------|
G|---------------------------------------------------------------------------------------|
D|--7-7---7-7-7--7-7-7--7--66-5-3--7777-7-7--7-7-7--7-7--6h7-7--7-7---7-7-7--7-7--7-7-7--|
A|--7-7---7-7-7--7-7-7--7--66-5-3--7777-7-7--7-7-7--7-7--6h7-7--7-7---7-7-7--7-7--7-7-7--|
E|--5-5---5-5-5--5-5-5--5----------5555-5-5--5-5-5--5-5---------5-5---5-5-5--5-5--5-5-5--|


E|----------------------------------------------------------------------|
B|----------------------------------------------------------------------|
G|----------------------------------------------------------------------|
D|--7-7-7-7-7-7-7-7-7-7-7-7-7-7-101010-999-7-7-7-7-7-7-7-7-7-7-7-7--8-8-|
A|--7-7-7-7-7-7-7-7-7-7-7-7-7-7-101010-999-7-7-7-7-7-7-7-7-7-7-7-7--8-8-|
E|--5-5-5-5-5-5-5-5-5-5-5-5-5-5--8-8-8-777-5-5-5-5-5-5-5-5-5-5-5-5--8-8-|


E|---------------------------------------------------------------------------|
B|---------------------------------------------------------------------------|
G|---------------------------------------------------------------------------|
D|--7-7-7-7-7-7-7-7-7-7-7-7-7-7-101010-999-7-7-7-7-7-7-7-7-7-7-7-7--8-8-777--|
A|--7-7-7-7-7-7-7-7-7-7-7-7-7-7-101010-999-7-7-7-7-7-7-7-7-7-7-7-7--8-8-777--|
E|--5-5-5-5-5-5-5-5-5-5-5-5-5-5--8-8-8-777-5-5-5-5-5-5-5-5-5-5-5-5--8-8-555--| The End
comments
We did not receive enough feedback on this tab! Please rate:
print report bad tab
1 2 3 4 5
I want to post or [tab]
guest
You may want to rate the tab now too:
select rating
Please do not post tabs as comments. Select "correction" instead!