Oops, an error
Loading. Please wait.

American Psycho Tab

ver1
ver1

Album

Whole song

Interactive

More versions @911Tabs.com
19,752 views 12 this week
no commentswrite comment
1 2 3 4 5
accurate
x 5
Autoscroll
+/-
esc
set tempo
stop
Contributor
Difficulty
intermediate
Hey! There's an official Ultimate Guitar app which is ideal
for learning songs when you're away from computer. Get the app
WARNING: You are trying to view
                                    content from Ultimate-Guitar.com
                                    in an unauthorized application,
                                    which is prohibited.

                                    Please use an official Ultimate
                                    Guitar Tabs application for iPhone,
                                    iPad or Android to access legitimate
                                    chords, guitar, bass, and drum tabs
                                    from Ultimate-Guitar.com database.

                                    Type "ultimate guitar tabs" in Apple
                                    App Store's or Android Market's
                                    search to find the application.
Misfits American Pyscho Album Tab
(All Songs Tabbed By Other People Not Me)

Abominable Dr Phibes

e|------------------------------------------------|
B|------------------------------------------------|
G|------------------------------------------------|x2
D|------------------------------------------------|
A|---------1---------------2----------------------|
D|-1---------------1------------------------------|
             *pick slide on the D string after you play that riff*
e|------------------------------------------------|
B|------------------------------------------------|
G|------------------------------------------------|
D|------------------------------------------------|
A|-4----2------------2/1--------------------------|
D|-----------6\8------------4\6-------------------|

e|------------------------------------------------|
B|------------------------------------------------|
G|------------------------------------------------|x2
D|------------------------------------------------|
A|---------1---------------2----------------------|
D|-1---------------1------------------------------|
             *pick slide on the D string after you play that riff*

e|------------------------------------------------|
B|------------------------------------------------|
G|------------------------------------------------|
D|------------------------------------------------|
A|-4----2------------2/1--------------------------|
D|-----------6\8------------4\6-------------------|

e|------------------------------------------------|
B|------------------------------------------------|
G|------------------------------------------------|
D|------------------------------------------------|
A|------------------------------------------------|
D|-6-----4-----3-----1----------------------------|

American Psycho

Intro:

E|-------------------------------------------------|
B|-------------------------------------------------|
G|--5-5-5-5-5-5-------------5-5-5-5-5-5------------|
D|--5-5-5-5-5-5-5-5-5-5-5-5-5-5-5-5-5-5-5-5-5-5-5-5|
A|--3-3-3-3-3-3-5-5-5-5-5-5-3-3-3-3-3-3-5-5-5-5-5-5|
E|--------------3-3-3-3-3-3-------------3-3-3-3-3-3|
Cont.
E|-------------------------------------------------|
B|-------------------------------------------------|
G|--5-5-5-5-5-5------------------------------------|
D|--5-5-5-5-5-5-5-5-5-5-5-5-8-8-8-8-811-11-11-11-11|
A|--3-3-3-3-3-3-5-5-5-5-5-5-6-6-6-6-6-9--9--9--9--9|
E|--------------3-3-3-3-3-3------------------------|

Verse:

E|-------------------------------------------------|
B|-------------------------------------------------|
G|-----------------4-4-4-4-------------------------|
D|-2-2-2-2-5-5-5-5-4-4-4-4-5-5-4-4-----------------|
A|-2-2-2-2-5-5-5-5-2-2-2-2-5-5-4-4-----------------|
E|-0-0-0-0-3-3-3-3---------3-3-2-2-----------------|
  |----------------------|
         palm mute

Other Part:

E|-------------------------|-----------------------|
B|-------------------------|-----------------------|
G|--6-6-6-6-6--------------|-4-4-4-4-4-------------|
D|--6-6-6-6-6-4-4-4-6-6-6--|-4-4-4-4-4-6-6-6-6-6---|
A|--4-4-4-4-4-4-4-4-6-6-6--|-2-2-2-2-2-6-6-6-6-6---|
E|------------2-2-2-4-4-4--|-----------4-4-4-4-4---|

Speak Of The Devil

Intro:
e|0------------------------|
B|-0-----------------------|
G|--0----------------------|     (repeat twice)
D|---2225225522552255------|
A|---2225225522552255------|
E|---0003003300330033------|
* strum quickly from 1st string and up.


Verse: (sorta similar to the only tab I could find but with a twist)

D|-----------------875-|
A|-----------------875-|    { the last part is a quick 3 strum.}
E|0033003300330033-653
PM................   (up and down strums on the PM part)

Ok heres where most tabs lacked.

Fill:

G|555555
D|555555
A|333333
E|------

Chourus: (can be played 2 ways)

1st way

G|---2222555555   (Sing it to key it right)
D|2222222555555
A|2220003333333
E|000----------

2nd way

G|---333555555
D|333333555555
A|333111333333
E|111---------

" spea--k of the Devi---l"

(again anyway works if you key it right.

Then there is a bridge

Bridge:

D|-87
A|-87
E|/65

Then outro is sorta similar to the intro

Outro:

e|0----------------|
B|-0---------------|
G|--0--------------|
D|---2:----------5-|
A|---2:----------5-|
E|---0:----------3-|


Song order

Intro x2
verse x2
fill
intro
verse x2
fill
chorus x2
bridge
intro
verse x2
fill
chorus x6
bridfe
verse x4
outro

Walk Among Us

 Intro
e --------------------------------------------------------------------------|
b --------------------------------------------------------------------------|
g --------------------------------------------------------------------------|
d --------------------------------------------------------------------------|
a 99999999-88888888-77777777-66666666-99999999-88888888-77777777-6666-5-4-2-|
E 77777777-66666666-55555555-44444444-77777777-66666666-55555555-4444-3-2-0-|

Verses

e -----------------------------------------------------------------|
b --------------------3333-----------------------------------------|
g --------------------2222-2222------------------------------------|
d --------------------0000-2222------------------------------------|
a 22222222222222222--------0000-2222222222222222222222222222222222-|
E 00000000000000000-------------0000000000000000000000000000000000-|

Chorus Part 1

e ---------------|
b -3-------------|
g -2--3----------|      X3
d -0--2----------|
a ----0-22222222-|
E ------00000000-|

Chorus Part 2
e -----------------------------|
b -3333------------------------|
g -2222-3333-------------------|
d -0000-2222-------------------| X2
a ------0000-2222222222222222--|
E -----------0000000030030030--|


Song Order

Intro
Verses
Chorus Part 1
Chorus Part 2
Intro
Chorus Part 1
Chorus Part 2 X2
Intro

The Hunger

(intro) All these notes are Natural Harmonics. Do the slide slowly and do tremolo
picking.
eb|---------------------------------------------------------------------------|
Bb|---------------------------------------------------------------------------|
Gb|---------------------------------------------------------------------------|
Db|---------------------------------------------------------------------------|
Ab|---------------------------------------------------------------------------|
Eb|--7-7-7-7-7-7-7-7-7-7-7-7-7-7-7-7-7/10-------------------------------------|

(riff 1)
eb|----------------------------|
Bb|----------------------------|
Gb|----------------------------|
Db|----------------------------|
Ab|--2--5--2--8--7--5----------|
Eb|--0--3--0--6--5--3----------|
    

(riff 2)
eb|---------------------------------------------------------------------------|
Bb|---------------------------------------------------------------------------|
Gb|---------------------------------------------------------------------------|
Db|---------------------------------------------------------------------------|
Ab|--9-9-9-9-9-9-9-9-9-9-9--5--5--5--5--5--2--2--2--2--2----------------------|
Eb|--7-7-7-7-7-7-7-7-7-7-7--3--3--3--3--3--0--0--0--0--0----------------------|

(riff 3)
eb|---------------------------------------------------------------------------|
Bb|---------------------------------------------------------------------------|
Gb|---------------------------------------------------------------------------|
Db|---------------------------------------------------------------------------|
Ab|--7:--9-7-5:-/---5:--7-5-4--/-\--------------------------------------------|
Eb|--5:--7-5-3:-/---3:--5-3-2--/-\--------------------------------------------|

(riff 4)
eb|---------------------------------------------------------------------------|
Bb|---------------------------------------------------------------------------|
Gb|---------------------------------------------------------------------------|
Db|---------------------------------------------------------------------------|
Ab|--2--2-5--2-2-2--8---7--2-2------------------------------------------------|
Eb|--0--0-3--0-0-0--6-0-5--0-0------------------------------------------------|
(PM)    .    . . .    .    . .

(outro)
eb|---------------------------------------------------------------------------|
Bb|---------------------------------------------------------------------------|
Gb|---------------------------------------------------------------------------|
Db|------------------------------2--------------------------------------------|
Ab|--2--2-5:--8:--7--5:---2::----2--------------------------------------------|
Eb|--0--0-3:--6:--5--3:---0::----0--------------------------------------------|
(PM)    .


order:
intro        1x
riff 1       4x
riff 2       3x
riff 3       1x
riff 1       4x
riff 2       3x
riff 3       1x
riff 1       4x(only single notes- Pinched harmonics)
riff 4       3x
outro        1x

From Hell They Came

Intro:

E|---------------------------------------------------------------------------|
B|---------------------------------------------------------------------------|
G|-8-8-8-8-8-8-8-8-----------------------------------------------------------|
D|-8-8-8-8-8-8-8-8-8-8-8-8-8-8-8-8-10-10-10-10-10-10-10-10-6-6-6-6-6-6-6-6---|
A|-6-6-6-6-6-6-6-6-8-8-8-8-8-8-8-8-10-10-10-10-10-10-10-10-6-6-6-6-6-6-6-6---|
E|-----------------6-6-6-6-6-6-6-6--8--8--8--8--8--8--8--8-4-4-4-4-4-4-4-4---|
cont:
E|-----------------------------------------------------------------|
B|-----------------------------------------------------------------|
G|-6---------------------------------------------------------------|
D|-6-------6-------8-8-8-8-8-8-8-8-8-8-8-8-8-8-8-8-----------------|
A|-4-------6-------8-8-8-8-8-8-8-8-8-8-8-8-8-8-8-8-----------------|
E|---------4-------6-6-6-6-6-6-6-6-6-6-6-6-6-6-6-6-----------------|
                   |------------------------------|
                            palm mute

Verse:

E|---------------------------------------------------------------------------|
B|---------------------------------------------------------------------------|
G|-8-8-8-8-8-8-8-8-----------------------------------------------------------|
D|-8-8-8-8-8-8-8-8-8-8-8-8-8-8-8-8-10-10-10-10-10-10-10-10-6-6-6-6-6-6-6-6---|
A|-6-6-6-6-6-6-6-6-8-8-8-8-8-8-8-8-10-10-10-10-10-10-10-10-6-6-6-6-6-6-6-6---|
E|-----------------6-6-6-6-6-6-6-6--8--8--8--8--8--8--8--8-4-4-4-4-4-4-4-4---|
cont.
E|-----------------------------------------------------------------|
B|-----------------------------------------------------------------|
G|-6-6-6-6-6-6-6-6-------------------------------------------------|
D|-6-6-6-6-6-6-6-6-6-6-6-6-6-6-6-6-8-8-8-8-8-8-8-8-8-8-8-8-8-8-8-8-|
A|-4-4-4-4-4-4-4-4-6-6-6-6-6-6-6-6-8-8-8-8-8-8-8-8-8-8-8-8-8-8-8-8-|
E|-----------------4-4-4-4-4-4-4-4-6-6-6-6-6-6-6-6-6-6-6-6-6-6-6-6-|


Chorus:

E|----------------------------------------------------------------------------|
B|----------------------------------------------------------------------------|
G|----------------------------------------------------------------------------|
D|8-10-11-11-11-11-11-11-11-11-6-6-6-6-6-6-6-6-8-8-8-8-8-8-8-8-8-8-8-8-8-8-8-8|
A|8-10-11-11-11-11-11-11-11-11-6-6-6-6-6-6-6-6-8-8-8-8-8-8-8-8-8-8-8-8-8-8-8-8|
E|6--8--9--9--9--9--9--9--9--9-4-4-4-4-4-4-4-4-6-6-6-6-6-6-6-6-6-6-6-6-6-6-6-6|


Bridge:

E|-----------------------------------------------------------------|
B|-----------------------------------------------------------------|
G|-5-5-5-5-5-5-5-5-----5-5-----------------------------------------|
D|-5-5-5-5-5-5-5-5-3-3-5-5-6-6-8-8-8-8-8-8-8-8-8-8-8-8-8-8-8-8-----|
A|-3-3-3-3-3-3-3-3-3-3-3-3-6-6-8-8-8-8-8-8-8-8-8-8-8-8-8-8-8-8-----|
E|-----------------1-1-----4-4-6-6-6-6-6-6-6-6-6-6-6-6-6-6-6-6-----|

Dig Up Her Bones

(intro)
eb|---------------------------------------------------------------------------|
Bb|---------------------------------------------------------------------------|
Gb|---------------------------------------------------------------------------|
Db|---------------------------------------------------------------------------|
Ab|--5/9-9-9-9-9-9--5-5-5-5-5-5--7-7-7-7-7-7----------------------------------|
Eb|--3/7-7-7-7-7-7--3-3-3-3-3-3--5-5-5-5-5-5--7-5-7-5-7-5-7-5-7---------------|

(intro cont.)                                      (pick slide)
eb|----------------------------------------|----------------------------------|
Bb|----------------------------------------|----------------------------------|
Gb|----------------------------------------|----------------------------------|
Db|----------------------------------------|---\\\\\\\\\\\--------------------|
Ab|--9-9-9-9-9-9--5-5-5-5-5-5--7-7-7-7-7-7-|----\\\\\\\\\\\-------------------|
Eb|--7-7-7-7-7-7--3-3-3-3-3-3--5-5-5-5-5-5-|----------------------------------|

(intro cont.)
eb|---------------------------------------------------------------------------|
Bb|---------------------------------------------------------------------------|
Gb|---------------------------------------------------------------------------|
Db|----------------7-7-7------------------------------------------------------|
Ab|--9-9-9--5-5-5--5-5-5--7-7-7--9-9-9--5-5-5--7:--5--------------------------|
Eb|--7-7-7--3-3-3---------5-5-5--7-7-7--3-3-3--5:--3--------------------------|

(verse)
eb|---------------------------------------------------------------------------|
Bb|---------------------------------------------------------------------------|
Gb|---------------------------------------------------------------------------|
Db|---------------------------------------------------------------------------|
Ab|--9--9-9-9-9-9--5--5-5-5-5-5--7--7-7-7-7-7---------------------------------|
Eb|--7--7-7-7-7-7--3--3-3-3-3-3--5--5-5-5-5-5--7-5-7-5-7-5-7-5-7--------------|
(PM)    . . . . .     . . . . .     . . . . . 

(bridge 1)
eb|---------------------------------------------------------------------------|
Bb|---------------------------------------------------------------------------|
Gb|---------------------------------------------------------------------------|
Db|---------------------------------------------------------------------------|
Ab|--5:--7:----9-7-9----9\7---------------------------------------------------|
Eb|--3:--5:----7-5-7----7\5---------------------------------------------------|

(bridge 2)
eb|---------------------------------------------------------------------------|
Bb|---------------------------------------------------------------------------|
Gb|---------------------------------------------------------------------------|
Db|---------------------------------------------------------------------------|
Ab|--5--5-5-5-5-5--7--7-7-7-7-7----9-7-9----9\7-------------------------------|
Eb|--3--3-3-3-3-3--5--5-5-5-5-5----7-5-7----7\5-------------------------------|
(PM)    . . . . .     . . . . .

(chorus)
eb|---------------------------------------------------------------------------|
Bb|---------------------------------------------------------------------------|
Gb|---------------------------------------------------------------------------|
Db|------------------------7-7-7-7--------------------------------------------|
Ab|--9-9-9-9----5-5-5-5----5-5-5-5----7-7-7-7---------------------------------|
Eb|--7-7-7-7----3-3-3-3---------------5-5-5-5---------------------------------|

(outro)
eb|---------------------------------------------------------------------------|
Bb|---------------------------------------------------------------------------|
Gb|---------------------------------------------------------------------------|
Db|---------------------------------------------------------------------------|
Ab|--9:--(feedback)-----------------------------------------------------------|
Eb|--7:-----------------------------------------------------------------------|


order:
intro       1x
verse       4x
bridge 1    2x
verse       4x
bridge 2    2x
chorus      4x
verse       6x
bridge 2    2x
chorus      8x
outro       1x


Blacklight

INTRO
e|------------------------------------------------------------|
B|------------------------------------------------------------|
G|-----------------5-5-5-5------------------5-5-5-5-----------|
D|--------3-3-3-3--5-5-5-5-7-7-7-7--3-3-3-3-5-5-5-5-----------|
A|--------3-3-3-3--3-3-3-3-7-7-7-7--3-3-3-3-3-3-3-3-----------|
E|--13\1--1-1-1-1----------5-5-5-5--1-1-1-1----------1/13\1---|

RIFF
e|----------------------------------------|
B|----------------------------------------|
G|----------------------------------------|
D|--7--7-7-7-7-7-7--5--7--7-7-7-7-7-7--5--|
A|--7--7-7-7-7-7-7--5--7--7-7-7-7-7-7--5--|
E|--5--5-5-5-5-5-5--3--5--5-5-5-5-5-5--3--|
pm     ***********        ***********

CHORUS   First and second time
e|------------------------------------------------------------------|
B|------------------------------------------------------------------|
G|------------------------------------------------------------------|
D|-3-3-3-3/7-7-7-7\3-3-3-3/7-7-7-7\3-3-3-3/7-7-7-7\3-3-3-3/7-7-7-7--|
A|-3-3-3-3/7-7-7-7\3-3-3-3/7-7-7-7\3-3-3-3/7-7-7-7\3-3-3-3/7-7-7-7--|
E|-1-1-1-1/5-5-5-5\1-1-1-1/5-5-5-5\1-1-1-1/5-5-5-5\1-1-1-1/5-5-5-5--|

e|------------------------------|
B|------------------------------|
G|--7-7-7-7-7--7/9-9-9-9-9-9-9--|
D|--7-7-7-7-7--7/9-9-9-9-9-9-9--|
A|--5-5-5-5-5--5/7-7-7-7-7-7-7--|
E|------------------------------|

CHORUS     Third time only
e|------------------------------------------------------------------|
B|------------------------------------------------------------------|
G|------------------------------------------------------------------|
D|--3-3-3-3/7-7-7-7\3-3-3-3/7-7-7-7\3-3-3-3/7-7-7-7\3-3-3-3/5-5-5-5-|
A|--3-3-3-3/7-7-7-7\3-3-3-3/7-7-7-7\3-3-3-3/7-7-7-7\3-3-3-3/5-5-5-5-|
E|--1-1-1-1/5-5-5-5\1-1-1-1/5-5-5-5\1-1-1-1/5-5-5-5\1-1-1-1/3-3-3-3-|

e|------------------------------|
B|------------------------------|
G|--7-7-7-7-7--7/9-9-9-9-9-9-9--|
D|--7-7-7-7-7--7/9-9-9-9-9-9-9--|
A|--5-5-5-5-5--5/7-7-7-7-7-7-7--|
E|------------------------------|

FILL
e|--------------------------|
B|--------------------------|
G|----------5-5-5-5---------|
D|--3-3-3-3-5-5-5-5---------|
A|--3-3-3-3-3-3-3-3---------|
E|--1-1-1-1---------1/13\1--|

OUTRO
e|------------------------------------------------------|
B|------------------------------------------------------|
G|----------5-5-5-5------------------5-5-5-5------------|
D|-3-3-3-3--5-5-5-5-7-7-7-7--3-3-3-3-5-5-5-5-7:--5--7:--|
A|-3-3-3-3--3-3-3-3-7-7-7-7--3-3-3-3-3-3-3-3-7:--5--7:--|
E|-1-1-1-1----------5-5-5-5--1-1-1-1---------5:--3--5;--|

Resurrection

 Intro
            D      B      G      A
          D-77777--44444-----------------------
          A-55555--22222--55555--77777---------
          E---------------33333--55555---------
           
          Verse1
            D       B       G       A
          D-7-7777--4-4444-------------------------
          A-5-5555--2-2222--5-5555--7-7777---------
          E-----------------3-3333--5-5555---------
              ....    ....    ....    ....
          
          Riff2
            G    A    B        A
          D----------------------------------------
          A-5555-7777-99999999-7-------------------
          E-3333-5555-77777777-5-------------------
                      ........   
          
          Riff3
            G    A     D   C#  B   A
          D------------7---6---4---2---------------
          A-5555-7777--5---4---2---0---------------
          E-3333-5555------------------------------
          
          Fill1
          GGGG AAAA
          
          Outro
          D       B        G         A         D
          _________________________________________
          
          Intro  X2
          Verse1 X2
          Riff2  X2
          Riff3
          Fill1
          Intro  X2 
          Riff2
          Riff3
          Intro  X4
          Outro

The Island Earth

Riff 1:
E----------------------------------------------------------
B----------------------------------------------------------
G----------------------------------------------------------
D-444444---------------------4444444-333333----------------
A-222222-44444-666666-44444--2222222-111111-4444444-6666666
E--------22222-444444-22222-----------------2222222-4444444
pm                                          .......

Riff 2:
E--------------------------------------------------------------------
B--------------------------------------------------------------------
G--------------------------------------------------------------------
D-4-4444444-3-333333----------------------4-4444444-3-333333-55555555
A-2-2222222-1-111111-6-66666666-4-4444444-2-2222222-1-111111-33333333 x's 2
E--------------------4-44444444-2-2222222----------------------------
pm  .......   ......   ........   .......   .......   ......

Riff 3:
E----------------------
B----------------------
G----------------------
D-444444-555555-6666666
A-222222-333333-4444444
E---------------------- x's 4

Riff 4:
E------------------------------------------------
B------------------------------------------------
G------------------------------------------------
D--------------666666---------------------6666666
A-44444-666666-444444-444444-44444-666666-4444444
E-22222-444444--------222222-22222-444444-------- x's 2

Riff 2 x's 2

Riff 3 x's 4

Riff 4 x's 2

Riff 5:
E-----------------------------
B-----------------------------
G-----------------------------
D-666666---------------6666666
A-444444-444444-666666-4444444
E--------222222-444444-------- x's 4

Crimson Ghost

tuned down a half step (low to high)
Eb Ab Db Gb Bb Eb

eb:---
Bb:---
Gb:---
Db:---
Ab:/7~
Eb:---
theres two ways you could do what doyles doing
1. get a tremolo pedal and stand close to amp 
and get feedback and bend the note like he does
2. use your tremolo bar like its the pedal but without 
the pedal (w/feedback)

bass riff(goes with guitar riff 2)
Gb:--------------------------------
Db:--------101010101010------------
Ab:/777777-------------777777-55555
Eb:--------------------------------

   riff 2
eb:---------
Bb:---------
Gb:---------
Db:--7-5-4-5
Ab:--7-5-4-5
Eb:\-5-3-2-3
i'm not putting the # of strums

eb:----------------------------
Bb:----------------------------
Gb:-------555555--------777777-
Db:-------555555--------777777-
Ab:-------333333--------555555-
Eb:000000--------000000--------
PM ------        ------(all down strokes)
riff2 again

eb:---------------
Bb:---------------
Gb:---------------
Db:2-5-2-5-2-5-2-5
Ab:2-5-2-5-2-5-2-5
Eb:0-3-0-3-0-3-0-3

part before first verse (its also the chorus riff)
eb:-------
Bb:-------
Gb:-------
Db:------5
Ab:------5
Eb:00000-3
PM -----(all down strokes)

verse
eb:-------:-------------
Bb:-------:-------------
Gb:-------:-------------
Db:9-7-10-:9------------
Ab:9-7-10-:9-777-555-44-
Eb:7-5--8-:7-555-333-22-
PM           ----------

outro
eb:--------------------------------
Bb:--------------------------------
Gb:--------------------------------
Db:-------3-------7-------7-------3
Ab:-------3-------7-------7-------3
Eb:0000-0-1-333-3-5-666-6-5-333-3-1
PM ------   -----   -----   -----

end
eb:0~---
Bb:--0~-
Gb:----0
Db:----2
Ab:----2
Eb:----0

Day Of The Dead

riff 1)
eb|---------------------------------------------------------------------------|
Bb|---------------------------------------------------------------------------|
Gb|---------------------------------------------------------------------------|
Db|-----------7--(trill)------------------------------------------------------|
Ab|--2--5--7--5--78787878--9-7-5-4--------------------------------------------|
Eb|--0--3--5---------------7-5-3-2--------------------------------------------|
(PM) .  .  .  .

(riff 2)
eb|---------------------------------------------------------------------------|
Bb|---------------------------------------------------------------------------|
Gb|---------------------------------------------------------------------------|
Db|---------------------------------------------------------------------------|
Ab|--7---7---7---4---4---4----------------------------------------------------|
Eb|--5-0-5-0-5-0-2-0-2-0-2----------------------------------------------------|

(riff 3)
eb|---------------------------------------------------------------------------|
Bb|---------------------------------------------------------------------------|
Gb|---------------------------------------------------------------------------|
Db|---------------------------------------------------------------------------|
Ab|--7--7-7-7-7-7-7-7-7-7--4--4-4-4-4-4-4-4-4-4-------------------------------|
Eb|--5--5-5-5-5-5-5-5-5-5--2--2-2-2-2-2-2-2-2-2-------------------------------|
(PM)   . . . . . . . . .     . . . . . . . . .

(riff 4)  
eb|---------------------------------------------------------------------------|
Bb|---------------------------------------------------------------------------|
Gb|---------------------------------------------------------------------------|
Db|---7-7-7-7-7--9------------------------------------------------------------|
Ab|---5-5-5-5-5--7------------------------------------------------------------|
Eb|---------------------------------------------------------------------------|

(riff 5)
eb|---------------------------------------------------------------------------|
Bb|---------------------------------------------------------------------------|
Gb|---------------------------------------------------------------------------|
Db|--7:----------------7:-----9:----------------------------------------------|
Ab|--5:------7:--------5:-----7:------9-7-5-4---------------------------------|
Eb|----------5:-----------------------7-5-3-2---------------------------------|

(riff 6)                                                       
eb|---------------------------------------------------------------------------|
Bb|---------------------------------------------------------------------------|
Gb|---------------------------------------------------------------------------|
Db|-------------------------------7-7-7-7-7--9--------------------------------|
Ab|--7---7---7---4---4---4--------5-5-5-5-5--7--------------------------------|
Eb|--5-0-5-0-5-0-2-0-2-0-2----------------------------------------------------|

(riff 7a)                                             (riff 7b)
eb|-------------------------------------|-------------------------------------|
Bb|-------------------------------------|-------------------------------------|
Gb|-------------------------------------|-------------------------------------|
Db|---7-7-7-7-7--9\---------------------|-------------------------------------|
Ab|---5-5-5-5-5--7\---------------------|--------7:------7--------------------|
Eb|-------------------------------------|--------5:------5--------------------|


(riff 8)
eb|---------------------------------------------------------------------------|
Bb|---------------------------------------------------------------------------|
Gb|---------------------------------------------------------------------------|
Db|-----------------------------9-8-7-6-5---------5:-4:----2-2----------------|
Ab|--5--5--5--5--7--7--7--7-----7-6-5-4-3--2-2-2--3:-2:----2-2----------------|
Eb|--3--3--3--3--5--5--5--5----------------0-0-0-----------0-0----------------|
(PM)                                       . . .


Order:
riff 1      2x
riff 2      2x
riff 3      2x
riff 4      1x
riff 2      2x
riff 3      2x
riff 4      1x
riff 2      2x
riff 5      1x
riff 2      2x
riff 5      1x
riff 6      3x
riff 2      1x
riff 7a     3x
riff 7b     1x
riff 8      1X

The Haunted

(intro)
eb|---------------------------------------------------------------------------|
Bb|---------------------------------------------------------------------------|
Gb|---------------------------------------------------------------------------|
Db|--7-7-7-7-7-7-7-7-7-7-7-7-7-7-7-7------------------------------------------|
Ab|--5-5-5-5-5-5-5-5-5-5-5-5-5-5-5-5-------7-7-7-7-7--------------------------|
Eb|-----------------------------------/-\--5-5-5-5-5--------------------------|
(PM)   . . . . . . .   . . . . . . .         

(verse)
eb|---------------------------------------------------------------------------|
Bb|---------------------------------------------------------------------------|
Gb|---------------------------------------------------------------------------|
Db|--7--7-7-7-7-7-------------------------------------------------------------|
Ab|--5--5-5-5-5-5--7--7-7-7-7-7--9--9-9-9-9-9--5--5-5-5-5-5-------------------|
Eb|----------------5--5-5-5-5-5--7--7-7-7-7-7--3--3-3-3-3-3-------------------|

(interlude)
eb|---------------------------------------------------------------------------|
Bb|---------------------------------------------------------------------------|
Gb|---------------------------------------------------------------------------|
Db|---------------------------------------------------------------------------|
Ab|--9--9-9-9-9-9--5--5-5-5-5-5--9--9-9-9-9-9--5--5-5-5-5-5--9--9-9-9-9-9-----|
Eb|--7--7-7-7-7-7--3--3-3-3-3-3--7--7-7-7-7-7--3--3-3-3-3-3--7--7-7-7-7-7-----|
(PM)    . . . . .     . . . . .     . . . . .     . . . . .     . . . . . 

(interlude cont.)
eb|---------------------------------------------------------------------------|
Bb|---------------------------------------------------------------------------|
Gb|---------------------------------------------------------------------------|
Db|---------------------------------------------------------------------------|
Ab|--5--5-5-5-5-5--4--4--4--4--4----------------------------------------------|
Eb|--3--3-3-3-3-3--2--2--2--2--2----------------------------------------------|
(PM)    . . . . .

(chorus a)
eb|---------------------------------------------------------------------------|
Bb|---------------------------------------------------------------------------|
Gb|---------------------------------------------------------------------------|
Db|--7--7-7-7-7-7-7----------------------------------8--8-8-8-8-8-------------|
Ab|--5--5-5-5-5-5-5--7--7-7-7-7-7-7--5--5-5-5-5-5-5--6--6-6-6-6-6-------------|
Eb|------------------5--5-5-5-5-5-5--3--3-3-3-3-3-3---------------------------|

(chorus a cont.)
eb|---------------------------------------------------------------------------|
Bb|---------------------------------------------------------------------------|
Gb|---------------------------------------------------------------------------|
Db|--7--7-7-7-7-7-7----------------------------------------8--8--8--8---------|
Ab|--5--5-5-5-5-5-5--7--7-7-7-7-7-7--5--5-5-5-5-5-5--------6--6--6--6---------|
Eb|------------------5--5-5-5-5-5-5--3--3-3-3-3-3-3--/--\---------------------|

(chorus b)
eb|---------------------------------------------------------------------------|
Bb|---------------------------------------------------------------------------|
Gb|---------------------------------------------------------------------------|
Db|--7--7-7-7-7-7-7----------------------------------8--8-8-8-8-8-------------|
Ab|--5--5-5-5-5-5-5--7--7-7-7-7-7-7--5--5-5-5-5-5-5--6--6-6-6-6-6-------------|
Eb|------------------5--5-5-5-5-5-5--3--3-3-3-3-3-3---------------------------|

(chorus b cont.)
eb|---------------------------------------------------------------------------|
Bb|---------------------------------------------------------------------------|
Gb|---------------------------------------------------------------------------|
Db|--7--7-7-7-7-7-7------------------------------------------8--8--8--8-------|
Ab|--5--5-5-5-5-5-5--7--7-7-7-7-7-7--\5--5--5--5--5----------6--6--6--6-------|
Eb|------------------5--5-5-5-5-5-5--\3--3--3--3--3---------------------------|

(chorus c)
eb|---------------------------------------------------------------------------|
Bb|---------------------------------------------------------------------------|
Gb|---------------------------------------------------------------------------|
Db|--7--7-7-7-7-7-7----------------------------------8--8-8-8-8-8-------------|
Ab|--5--5-5-5-5-5-5--7--7-7-7-7-7-7--5--5-5-5-5-5-5--6--6-6-6-6-6-------------|
Eb|------------------5--5-5-5-5-5-5--3--3-3-3-3-3-3---------------------------|

(chorus c cont.)
eb|---------------------------------------------------------------------------|
Bb|---------------------------------------------------------------------------|
Gb|---------------------------------------------------------------------------|
Db|--7--7-7-7-7-7-7--------------------------------------8--8--8--8--7:--7----|
Ab|--5--5-5-5-5-5-5--7--7-7-7-7-7-7--\5--5--5--5--5------6--6--6--6--5:--5----|
Eb|------------------5--5-5-5-5-5-5--\3--3--3--3--3---------------------------|


order:
intro      1x
verse      2x
interlude  1x
chorus a   1x
chorus b   1x
intro      1x
verse      2x
interlude  1x
chorus a   1x
chorus c   1x

Mars Attacks

intro)
eb|---------------------------------------------------------------------------|
Bb|---------------------------------------------------------------------------|
Gb|---------------------------------------------------------------------------|
Db|---------------------------------------------------------------------------|
Ab|--7-7-7-7-7-7-7-7-7-7-7-7-7-7-7-7-7-7-7-7----------------------------------|
Eb|--5-5-5-5-5-5-5-5-5-5-5-5-5-5-5-5-5-5-5-5----------------------------------|
(PM). . . . . . . . . . . . . . .

(verse)
eb|---------------------------------------------------------------------------|
Bb|---------------------------------------------------------------------------|
Gb|---------------------------------------------------------------------------|
Db|-------------------------5-5-5-5-5-5-5-5-5-5-5-5---------------------------|
Ab|--7-7-7-7-7-7-7-7-7-7-7--3-3-3-3-3-3-3-3-3-3-3-3-\-5-5-5-5-5-5-5-5-5-5-5---|
Eb|--5-5-5-5-5-5-5-5-5-5-5--------------------------\-3-3-3-3-3-3-3-3-3-3-3---|
(PM) . . . . . . . . . . .    . . . . . . . . . . .     . . . . . . . . . .

eb|---------------------------------------------------------------------------|
Bb|---------------------------------------------------------------------------|
Gb|---------------------------------------------------------------------------|
Db|--------------------------------------------------5-5-5-5-5-5-5-5-5-5-5----|
Ab|--7-7-7-7-7-7-7-7-7-7-7--7-7-7-7-7-7-7-7-7-7-7-7--3-3-3-3-3-3-3-3-3-3-3----|
Eb|--5-5-5-5-5-5-5-5-5-5-5--5-5-5-5-5-5-5-5-5-5-5-5---------------------------|
(PM)   . . . . . . . . . .    . . . . . . . . . . .    . . . . . . . . . .

eb|--------------------------------------------------------------------------|
Bb|--------------------------------------------------------------------------|
Gb|--------------------------------------------------------------------------|
Db|------------------------------7:--7-7-7-7-7-7-7-7-------------------------|
Ab|--\--5-5-5-5-5-5-5-5-5-5-5-5--5:--5-5-5-5-5-5-5-5-------------------------|
Eb|--\--3-3-3-3-3-3-3-3-3-3-3-3----------------------------------------------|
(PM)      . . . . . . . . . . .      . . . . . . . .

(chorus)
eb|---------------------------------------------------------------------------|
Bb|---------------------------------------------------------------------------|
Gb|---------------------------------------------------------------------------|
Db|--------5-------7-7-7-7-7-7-------5-------5-5-5-5-5-5-------5--------------|
Ab|--5-7-8---8-7-5-5-5-5-5-5-5-5-7-8---8-7-5-3-3-3-3-3-3-5-7-8---8-7-5--3:----|
Eb|---------------------------------------------------------------------1:----|

eb|---------------------------------------------------------------------------|
Bb|---------------------------------------------------------------------------|
Gb|---------------------------------------------------------------------------|
Db|---------------7-7-7-7-7-7--5-5-5-5-5-5-5----------------------------------|
Ab|--8-8-8-8-8-8--5-5-5-5-5-5--3-3-3-3-3-3-3----------------------------------|
Eb|--6-6-6-6-6-6--------------------------------------------------------------|
(PM)                           . . . . . . .

(post chorus)
eb|---------------------------------------------------------------------------|
Bb|---------------------------------------------------------------------------|
Gb|---------------------------------------------------------------------------|
Db|---------------------------------------------------------------------------|
Ab|--5-5-5-5-5-5--7-7-7-7-7-7-7-7-7-7-7---------------------------------------|
Eb|--3-3-3-3-3-3--5-5-5-5-5-5-5-5-5-5-5---------------------------------------|
(PM) . . . . . .  . . . . . . . . . . .

(outro)
eb|---------------------------------------------------------------------------|
Bb|---------------------------------------------------------------------------|
Gb|---------------------------------------------------------------------------|
Db|--------5-------7-7-7-7-7-7-------5-------5-5-5-5-5-5-------5--------------|
Ab|--5-7-8---8-7-5-5-5-5-5-5-5-5-7-8---8-7-5-3-3-3-3-3-3-5-7-8---8-7-5--------|
Eb|---------------------------------------------------------------------------|

eB|---------------------------------------------------------------------------|
Bb|---------------------------------------------------------------------------|
Gb|---------------------------------------------------------------------------|
Db|------------------------------------7-7-7-7-7-7-7-7--5:--------------------|
Ab|--3-3-3-3-3-3-3-3--8-8-8-8-8-8-8-8--5-5-5-5-5-5-5-5--3:--------------------|
Eb|--1-1-1-1-1-1-1-1--6-6-6-6-6-6-6-6-----------------------------------------|


order:
intro         1x
verse         1x
chorus        2x
post chorus   1x
verse         1x (without the PM's)
chorus        3x
outro         1x

Hate The Living Love The Dead

(intro)
eb|---------------------------------------------------------------------------|
Bb|---------------------------------------------------------------------------|
Gb|---------------------------------------------------------------------------|
Db|---------------------------------------------------------------------------|
Ab|--\12-11-9-7-9-11-12-11-----9:---------------------------------------------|
Eb|--\10-9--7-5-7-9--10-9------7:---------------------------------------------|

*(Verse)* 
eb|----------------------------|----------------------------------------------|
Bb|----------------------------|----------------------------------------------|
Gb|----------------------------|----------------------------------------------|
Db|----------------------------|-----4----------------------------------------|
Ab|-------(NH's)---------------|--4--2--2----4--------------------------------|
Eb|--33333/222222/111111/000000|--2-----0--0-2--------------------------------|

(chorus)                                                     (2's and 3's)
eb|---------------------------------------------------------|-----------------|
Bb|---------------------------------------------------------|-----------------|
Gb|---------------------------------------------------------|-----------------|
Db|-----------------------9-9-9-9---------------------------|-----------------|
Ab|--10-10-10-10-9-9-9-9--7-7-7-7-------10-10-10-10-9-9-9-9-|-----------------|
Eb|--8--8--8--8--7-7-7-7-----------5\3--8--8--8--8--7-7-7-7-|-0023002300230023|
(PM)                                                          ................

(outro)
eb|---------------------------------------------------------------------------|
Bb|---------------------------------------------------------------------------|
Gb|---------------------------------------------------------------------------|
Db|---------------------------------------------------------------------------|
Ab|--12-11-9-7-9-11-12-11-----9-------7\6/7\6/7\6/7:(feedback)----------------|
Eb|--10-9--7-5-7-9--10-9------7-------5\4/5\4/5\4/5:--------------------------|

order:
intro     1x
verse     4x
chorus    2x
verse     4x
chorus    4x
outro     1x

Shining

Intro: Guitar 1

e|--------------------------------------------------------------------|
B|--------------------------------------------------------------------|
G|--------------------------------------------------------------------|
D|--1-111111-6-4-6-4-1-111111-6-4-6-4-1-111111-6-4-6-4-1-111111-8-88--| (2X)
A|--1-111111-6-4-6-4-1-111111-6-4-6-4-1-111111-6-4-6-4-1-111111-8-88--|
E|--1-111111-6-4-6-4-1-111111-6-4-6-4-1-111111-6-4-6-4-1-111111-8-88--|
                                                                \  /
Verse: Guitar 1                                                 BEND

e|----------------------------------------|
B|----------------------------------------|
G|----------------------------------------|
D|--1-11111111111111--9-9-9999--8-8-8888--| (3X)
A|--1-11111111111111--9-9-9999--8-8-8888--|
E|--1-11111111111111--9-9-9999--8-8-8888--|
      **************

e|--------------------------------------------------------------------------|
B|--------------------------------------------------------------------------|
G|--------------------------------------------------------------------------|
D|--1-11111111111111--9-9-9999-99-9-9--8-8-8888-88-8888-88-8888--9-99-8-88--|
A|--1-11111111111111--9-9-9999-99-9-9--8-8-8888-88-8888-88-8888--9-99-8-88--|
E|--1-11111111111111--9-9-9999-99-9-9--8-8-8888-88-8888-88-8888--9-99-8-88--|
      **************

e|--------------------------------------------------------------------|
B|--------------------------------------------------------------------|
G|--------------------------------------------------------------------|
D|--1-111111-6-4-6-4-1-111111-6-4-6-4-1-111111-6-4-6-4-1-111111-8-88--| (2X)
A|--1-111111-6-4-6-4-1-111111-6-4-6-4-1-111111-6-4-6-4-1-111111-8-88--|
E|--1-111111-6-4-6-4-1-111111-6-4-6-4-1-111111-6-4-6-4-1-111111-8-88--|
                                                                \  /
Verse: Guitar 1                                                 BEND

e|----------------------------------------|
B|----------------------------------------|
G|----------------------------------------|
D|--1-11111111111111--9-9-9999--8-8-8888--| (3X)
A|--1-11111111111111--9-9-9999--8-8-8888--|
E|--1-11111111111111--9-9-9999--8-8-8888--|
      **************

e|--------------------------------------------------------------------------|
B|--------------------------------------------------------------------------|
G|--------------------------------------------------------------------------|
D|--1-11111111111111--9-9-9999-99-9-9--8-8-8888-88-8888-88-8888--9-99-8-88--|
A|--1-11111111111111--9-9-9999-99-9-9--8-8-8888-88-8888-88-8888--9-99-8-88--|
E|--1-11111111111111--9-9-9999-99-9-9--8-8-8888-88-8888-88-8888--9-99-8-88--|
      **************
                                              
Chorus: Guitar 1

e|-----------------------------------------|
B|-----------------------------------------|
G|--5-5-5555-5-5-5555----------------------|
D|--5-5-5555-5-5-5555--6-6-6666--8-8-8888--| (3X)
A|--3-3-3333-3-3-3333--6-6-6666--8-8-8888--|
E|---------------------6-6-6666--8-8-8888--|

e|-------------------------------------------------------------|
B|-------------------------------------------------------------|
G|--5-5-5555-5-5-5555------------------------------------------|
D|--5-5-5555-5-5-5555--6-6-6666--8-8-8888--9-9-9999--8-8-8888--|
A|--3-3-3333-3-3-3333--6-6-6666--8-8-8888--9-9-9999--8-8-8888--|
E|---------------------6-6-6666--8-8-8888--9-9-9999--8-8-8888--|

e|--------------------------------------------------------------------|
B|--------------------------------------------------------------------|
G|--------------------------------------------------------------------|
D|--1-111111-6-4-6-4-1-111111-6-4-6-4-1-111111-6-4-6-4-1-111111-8-88--| (2X)
A|--1-111111-6-4-6-4-1-111111-6-4-6-4-1-111111-6-4-6-4-1-111111-8-88--|
E|--1-111111-6-4-6-4-1-111111-6-4-6-4-1-111111-6-4-6-4-1-111111-8-88--|
                                                                \  /
                                                                BEND
Verse: Guitar 1                                                 

e|----------------------------------------|
B|----------------------------------------|
G|----------------------------------------|
D|--1-11111111111111--9-9-9999--8-8-8888--| (3X)
A|--1-11111111111111--9-9-9999--8-8-8888--|
E|--1-11111111111111--9-9-9999--8-8-8888--|
      **************

e|--------------------------------------------------------------------------|
B|--------------------------------------------------------------------------|
G|--------------------------------------------------------------------------|
D|--1-11111111111111--9-9-9999-99-9-9--8-8-8888-88-8888-88-8888--9-99-8-88--|
A|--1-11111111111111--9-9-9999-99-9-9--8-8-8888-88-8888-88-8888--9-99-8-88--|
E|--1-11111111111111--9-9-9999-99-9-9--8-8-8888-88-8888-88-8888--9-99-8-88--|
      **************

Chorus: Guitar 1

e|----------------------------------------|
B|----------------------------------------|
G|--5-5-5555-5-5-5555---------------------|
D|--5-5-5555-5-5-5555--6-6-6666-8-8-8888--| (3X)
A|--3-3-3333-3-3-3333--6-6-6666-8-8-8888--|
E|---------------------6-6-6666-8-8-8888--|

e|-------------------------------------------------------------|
B|-------------------------------------------------------------|
G|--5-5-5555-5-5-5555------------------------------------------|
D|--5-5-5555-5-5-5555--6-6-6666--8-8-8888--9-9-9999--8-8-8888--|
A|--3-3-3333-3-3-3333--6-6-6666--8-8-8888--9-9-9999--8-8-8888--|
E|---------------------6-6-6666--8-8-8888--9-9-9999--8-8-8888--|

e|--------------------------------------------------------------------|
B|--------------------------------------------------------------------|
G|--------------------------------------------------------------------|
D|--1-111111-6-4-6-4-1-111111-6-4-6-4-1-111111-6-4-6-4-1-111111-8-88--|
A|--1-111111-6-4-6-4-1-111111-6-4-6-4-1-111111-6-4-6-4-1-111111-8-88--|
E|--1-111111-6-4-6-4-1-111111-6-4-6-4-1-111111-6-4-6-4-1-111111-8-88--|
                                                                \  /
                                                                BEND
e|----------------------------------------|                          
B|----------------------------------------|
G|--5-5-5555-5-5-5555---------------------|
D|--5-5-5555-5-5-5555--6-6-6666-8-8-8888--| (3X)
A|--3-3-3333-3-3-3333--6-6-6666-8-8-8888--|
E|---------------------6-6-6666-8-8-8888--|                                                                

e|-------------------------------------------------------------|
B|-------------------------------------------------------------|
G|--5-5-5555-5-5-5555------------------------------------------|
D|--5-5-5555-5-5-5555--6-6-6666--8-8-8888--9-9-9999--8-8-8888--|
A|--3-3-3333-3-3-3333--6-6-6666--8-8-8888--9-9-9999--8-8-8888--|
E|---------------------6-6-6666--8-8-8888--9-9-9999--8-8-8888--|

End: Guitar 1

e|--------------------------------------------------------------------|
B|--------------------------------------------------------------------|
G|--------------------------------------------------------------------|
D|--1-111111-6-4-6-4-1-111111-6-4-6-4-1-111111-6-4-6-4-1-111111-8-88--| (2X)
A|--1-111111-6-4-6-4-1-111111-6-4-6-4-1-111111-6-4-6-4-1-111111-8-88--|
E|--1-111111-6-4-6-4-1-111111-6-4-6-4-1-111111-6-4-6-4-1-111111-8-88--|
                                                                \  /
                                                                BEND
e|--------------------------------------------------------------------|
B|--------------------------------------------------------------------|
G|--------------------------------------------------------------------|
D|--8----/\----/\----/\----/\----/\----/\----/\----/\----/\-----1--1--|
A|--8---/--\--/--\--/--\--/--\--/--\--/--\--/--\--/--\--/--\----1--1--|
E|--8--/----\/----\/----\/----\/----\/----\/----\/----\/----\---1--1--|

Don't Open Till Doomsday

(intro)      (clean and strum down slowly)
eb|---------------------------------------------------------------------------|
Bb|---------------------------------------------------------------------------|
Gb|--9------------6--------------2-------------4------------------------------|
Db|--9------------6--------------2-------------4------------------------------|
Ab|--7------------4--------------0-------------2------------------------------|
Eb|---------------------------------------------------------------------------|

(verse)
eb|---------------------------------------------------------------------------|
Bb|---------------------------------------------------------------------------|
Gb|---------------------------------------------------------------------------|
Db|--9(16x)--4(16x)--6(16x)---------------------------------------------------|
Ab|--7-------2-------4-------6(16x)---7(16x)--\2(8x)--5(16x)--7(8x)--9(8x)----|
Eb|--------------------------4-------/5--------0------3-------5------7--------|

(chorus a) (there is two ways to play this)
eb|---------------------------------------------------------------------------|
Bb|---------------------------------------------------------------------------|
Gb|---------------------------------------------------------------------------|
Db|-9(8x)--6(8x)--2(8x)--4(8x)------------------------------------------------|
Ab|-7------4------0------2----------------------------------------------------|
Eb|---------------------------------------------------------------------------|

                                or

eb|---------------------------------------------------------------------------|
Bb|---------------------------------------------------------------------------|
Gb|---------------------------------------------------------------------------|
Db|-9(8x)--6(8x)--------------------------------------------------------------|
Ab|-7------4------7(8x)--9-7-9-7----------------------------------------------|
Eb|---------------5------7-5-7-5----------------------------------------------|

(chorus b)
eb|---------------------------------------------------------------------------|
Bb|---------------------------------------------------------------------------|
Gb|---------------------------------------------------------------------------|
Db|---------------------------------------------------------------------------|
Ab|--7--7-7-7-7-7-7-7-7--9--9-9-9-9-9-9-9-9\----------------------------------|
Eb|--5--5-5-5-5-5-5-5-5--7--7-7-7-7-7-7-7-7\----------------------------------|
(PM)    . . . . . . . .     . . . . . . . .

(outro)  (with feedback)
eb|---------------------------------------------------------------------------|
Bb|---------------------------------------------------------------------------|
Gb|---------------------------------------------------------------------------|
Db|--9:-----------------------------------------------------------------------|
Ab|--7:-----------------------------------------------------------------------|
Eb|---------------------------------------------------------------------------|



order:
intro       1x
verse       2x(2nd time without the 2nd slide)
chorus a    3x
chorus b    1x
chorus a    3x
chorus b    1x
verse       1x(without 2nd slide)
chorus a    3x
chorus b    1x
chorus a    3x
chorus b    2x
outro       1x



| : Let ring
| PM Palm Mute
| /  slide up
| \  slide down
| h  hammer-on
| p  pull-off
| ~  vibrato
| +  harmonic
| x  Mute note

And There You Go, The Misfits American Psycho Album, Probably A Few Mistakes But Its All Good

                               -Rock On, Iowa
comments
print report bad tab
I want to post or [tab]
guest
You may want to rate the tab now too:
select rating
Please do not post tabs as comments. Select "correction" instead!