Oops, an error
Loading. Please wait.

Anarchy In Uk Tab

3,541 views 3 this week
1 commentread comment
1 2 3 4 5
not so good
x 3
add to favorites launch autoscroll
font size
0
reset
Autoscroll
+/-
esc
set tempo
stop
Contributor
WARNING: You are trying to view
                                    content from Ultimate-Guitar.com
                                    in an unauthorized application,
                                    which is prohibited.

                                    Please use an official Ultimate
                                    Guitar Tabs application for iPhone,
                                    iPad or Android to access legitimate
                                    chords, guitar, bass, and drum tabs
                                    from Ultimate-Guitar.com database.

                                    Type "ultimate guitar tabs" in Apple
                                    App Store's or Android Market's
                                    search to find the application.
Title : Anarchy In The U.K.
        Artist : Misfits - Sex Pistols Cover!

Transcribed by : skywalker@infoguitar.com


Legend
------

 h  = hammer-on
 p  = pull-off
 b  = bend
 r  = bend release
 /  = slide up/down
<5> = natural harmonic
[5] = artifical harmonic
 ~  = vibrato
 tr = trill

   INTRO: BOTH GUITARS

E|--------------------------------------------------------|------------|
B|--------------------------------------------------------|------------|
G|--------------------------------------------------------|-10---------|
D|-5------------------------------------------------------|-10-----10--|
A|-5------5---5---5---5---5---5---5---5-------------------|--8------8--|
E|-3------3---3---3---3---3---3---3---3---3-3-3-3-3-3-3-3-|------------|

                                                    SECTION A: BOTH GUITARS

E|------------------------------------------------|---------------------|
B|------------------------------------------------|---------------------|
G|------------------------------------------7---7-|--5------------------|
D|--10---10---10---10---10---9-9-9-9-9--9---7---7-|--5------------------|
A|---8----8----8----8----8---7-7-7-7-7--7---5---5-|--3-------3--3--3--3-|
E|------------------------------------------------|---------------------|
                                            "Right now..."

E|-----------------------------------|---------------------------------|
B|-----------------------------------|---------------------------------|
G|--------------------10\--9--9\--5--|--5------------------------------|
D|--------------------10\--9--9\--5--|--5------------------------------|
A|--3--3--3--3--3--3/--8\--7--7\--3--|--3------3--3--3--3--3--3--3--3--|
E|-----------------------------------|---------------------------------|


E|---------------------|-----------------------------------------------|
B|---------------------|-----------------------------------------------|
G|-------10\--9--9\--5-|--5-------------------------------------10\--9-|
D|-------10\--9--9\--5-|--5-------------------------------------10\--9-|
A|-3--3/--8\--7--7\--3-|--3-------3--3--3--3--3--3--3--3--3--3/--8\--7-|
E|---------------------|-----------------------------------------------|
                          "I am an antichrist..."

E|---------|-----------------------------------------------------|-----|
B|---------|-----------------------------------------------------|-----|
G|--9\--5--|--5------------------------------------10\--9--9\--5-|--5--|
D|--9\--5--|--5------------------------------------10\--9--9\--5-|--5--|
A|--7\--3--|--3------3--3--3--3--3--3--3--3--3--3/--8\--7--7\--3-|--3--|
E|---------|-----------------------------------------------------|-----|
              "And I am an Anarchist..."                            "Don't know what I 
but I know how to get it..."

E|---------------------------------------------------|------------------|
B|---------------------------------------------------|------------------|
G|------------------------------------10\--9--9\--5--|--5---------------|
D|------------------------------------10\--9--9\--5--|--5---------------|
A|------3--3--3--3--3--3--3--3--3--3/--8\--7--7\--3--|--3-------3--3--3-|
E|---------------------------------------------------|------------------|
                                                        "I want to destroy, possibly?"


                                       SECTION B: GUITAR 1

E|-----------------------------------|---------------------------------|
B|-----------------------------------|---------------------------------|
G|-----------------------------------|---------------------------------|
D|-----------------------------------|---5-----------------------------|
A|--3--3--3--3--3--3--3--3--3--3--3--|---5-----------------------------|
E|-----------------------------------|---3--------3--3--3--3--3--3--3--|
                                         "Cause I..."

E-----------------------|-----------------------------------------------|
B-----------------------|-----------------------------------------------|
G-----------------------|----------------------------------------7------|
D-----------------------|--3--------------------------2----------7------|
A----------------4------|--3--------------------------2----------5------|
E-3--3--3--3--3--2--2-2-|--1--------1--1--1--1--1--1--0----0--0-------0-|
                    "Want to be..."                              "Anarchy..."

E----|-------------------------------------------------------|---------|
B----|-------------------------------------------------------|---------|
G----|--5-------------------------------------10\--9--9\--5--|--5------|
D----|--5-------------------------------------10\--9--9\--5--|--5------|
A----|--3-------3--3--3--3--3--3--3--3--3--3---8\--7--7\--3--|--3------|
E--0-|-------------------------------------------------------|---------|

                                               SECTION B: GUITAR 2

E--------------------------------------------|-------------------------|
B--------------------------------------------|-------------------------|
G--------------------------------------------|-------------------------|
D--------------------------------------------|---5--------------(5)----|
A---3--3--3--3--3--3--3----------------------|---5--------------(5)----|
E------------------------3--3--3--3--3--3--3-|---3--------------(3)----|
    "No dog's body..."

E---------------------|--------------------------------------------|----|
B---------------------|--------------------------------------------|----|
G---------------------|-----------------------------------7----7---|--5-|
D-----------5----4----|--3----------(3)----------2--------7----7---|--5-|
A-----------5----4----|--3----------(3)----------2--------5----5---|--3-|
E-----------3----2----|--1----------(1)----------0-----------------|----|


E|-------------------------------------|--------------------------------|
B|-------------------------------------|--------------------------------|
G|-------------------------------------|--(5)---------------------------|
D|-------------------------------------|--(5)---------------------------|
A|-------------------------------------|--(3)----------------------5--5-|
E|-------------------------------------|---------------------------3--3-|

                    BOTH GUITARS:

E|----------------|----------------------------------------------------|
B|----------------|----------------------------------------------------|
G|----------------|--5-------------------------------------10\--9--9\--|
D|----------------|--5-------------------------------------10\--9--9\--|
A|--5--5--5--5--5-|--3-------3--3--3--3--3--3--3--3--3--3/--8\--7--7\--|
E|--3--3--3--3--3-|----------------------------------------------------|
                     "Anarchy for the U.S.A..."

E|----|-----------------------------------------------------|----------|
B|----|-----------------------------------------------------|----------|
G|-5--|--5------------------------------------10\--9--9\--5-|--5-------|
D|-5--|--5------------------------------------10\--9--9\--5-|--5-------|
A|-3--|--3------3--3--3--3--3--3--3--3--3--3/--8\--7--7\--3-|--3-------|
E|----|-----------------------------------------------------|----------|
         "It's coming sometime, it may be..."                  "I give a wrong time, 
a traffic light..."

E|----------------------------------------------|----------------------|
B|----------------------------------------------|----------------------|
G|-------------------------------10\--9--9\--5--|--5-------------------|
D|-------------------------------10\--9--9\--5--|--5-------------------|
A|-3--3--3--3--3--3--3--3--3--3/--8\--7--7\--3--|--3-------3--3--3--3--|
E|----------------------------------------------|----------------------|
                                                   "Your future dream is a shopping spree"


                                   GUITAR 1:

E|-------------------------------|--------------------------------------|
B|-------------------------------|--------------------------------------|
G|-------------------------------|--------------------------------------|
D|-------------------------------|---5----------------------------------|
A|-3--3--3--3--3--3--3--3--3--3--|---5----------------------------------|
E|-------------------------------|---3--------3--3--3--3--3--3--3--3--3-|
                                     "Cause I..."

E------------------|---------------------------------------------------|
B------------------|---------------------------------------------------|
G------------------|---------------------------------------------------|
D------------------|--3--------------------------2----------0----------|
A-----------4------|--3--------------------------2----------0----------|
E--3--3--3--2--2-2-|--1--------1--1--1--1--1--1--0----0--0-------0--0--|
               "Want to be..."                              "Anarchy..."

E|-------------------------------------------------------|-------------|
B|-------------------------------------------------------|-------------|
G|--5-------------------------------------10\--9--9\--5--|--5----------|
D|--5-------------------------------------10\--9--9\--5--|--5----------|
A|--3-------3--3--3--3--3--3--3--3--3--3---8\--7--7\--3--|--3--------3-|
E|-------------------------------------------------------|-------------|
                                                                     "In the city..."


                                            GUITAR 2:

E|----------------------------------------|----------------------------|
B|----------------------------------------|----------------------------|
G|----------------------------------------|----------------------------|
D|----------------------------------------|---5--------------(5)-------|
A|--3--3--3--3--3--3--3--3--3--3--3--3--3-|---5--------------(5)-------|
E|----------------------------------------|---3--------------(3)-------|


E------------------|--------------------------------------------|------|
B------------------|--------------------------------------------|------|
G------------------|-----------------------------------7----7---|--5---|
D--------5----4----|--3----------(3)----------2--------7----7---|--5---|
A--------5----4----|--3----------(3)----------2--------5----5---|--3---|
E--------3----2----|--1----------(1)----------0-----------------|------|


E|-----------------------------------|---------------------------------|
B|-----------------------------------|---------------------------------|
G|-----------------------------------|--(5)----------------------------|
D|-----------------------------------|--(5)----------------------------|
A|-----------------------------------|--(3)----------------------------|
E|-----------------------------------|---------------------------------|

             LEAD 1: GUITAR 1

E|---------|-------------------------------------------------------------|
B|---------|----14--------------17--14-------------------14-----------17-|
G|---------|----14-------x--x-x-16--14-------------------14-------x-x-16-|
D|-x-------|-16-----16~--x--x-x---------17~-14\-14h15-16-----16~--x-x----|
A|-x-------|-------------------------------------------------------------|
E|---------|-------------------------------------------------------------|


E|--------------------|------------------------------------------------|
B|--14----------------|----14-------------17--14-------------------14--|
G|--14----------12h14-|----14-------x-x-x-16--14-------------------14--|
D|------17~-14--------|-16-----16~--x-x-x---------17~-14--14h15-16-----|
A|--------------------|------------------------------------------------|
E|--------------------|------------------------------------------------|


E|---------------------------|------15---------------15-----------15-----|
B|-----------------15--18p15-|---------15h18-15---------18p15--------18--|p
G|-------14/----17-----------|-17---------------17------------17---------|
D|-16~-----------------------|-------------------------------------------|
A|---------------------------|-------------------------------------------|
E|---------------------------|-------------------------------------------|


E|---------15------------r-------15-19-15--------15-15-|-15-19-15-------|
B|-15---------18p15-18----18--r-----------18b19--------|----------18b19-|
G|----17-----------------------------------------------|----------------|
D|-----------------------------------------------------|----------------|
A|-----------------------------------------------------|----------------|
E|-----------------------------------------------------|----------------|


E|--15-15-15-19-15----15-15-15-19-15----15-15-15-19-15--------15-15-15-|
B|-----------------19----------------19----------------18b19-----------|
G|---------------------------------------------------------------------|
D|---------------------------------------------------------------------|
A|---------------------------------------------------------------------|
E|---------------------------------------------------------------------|

                                  LEAD 1 RHYTHM: GUITAR 2

E|-19-15--------15-15-19b21----||--------------------------------------|
B|-------18b19-----------------||--------------------------------------|
G|-----------------------------||---7------------------------------9---|
D|-----------------------------||---7------------------------------9---|
A|-----------------------------||---5-----5-5-5-5-5-5-5-5-5-5-5-5--7---|
E|-----------------------------||--------------------------------------|


E|----------------------------|-----------------------------------------|
B|----------------------------|-----------------------------------------|
G|----------------------------|--7------------------------------9-------|
D|----------------------------|--7------------------------------9-------|
A|---7-7-7-7-7-7-7-7-7-7-7-7--|--5-----5-5-5-5-5-5-5-5-5-5-5-5--7-----7-|
E|----------------------------|-----------------------------------------|


E|-----------------------|----------------------------------------------|
B|-----------------------|----------------------------------------------|
G|-----------------------|---7------------------------------9-----------|
D|-----------------------|---7------------------------------9-----------|
A|-7-7-7-7-7-7-7-7-7-7-7-|---5-----5-5-5-5-5-5-5-5-5-5-5-5--7-----7-7-7-|
E|-----------------------|----------------------------------------------|


E|--------------------|-------------------------------------------------|
B|--------------------|-------------------------------------------------|
G|--------------------|--7----------------------------------------------|
D|--------------------|--7------------------------------5-------5-------|
A|-7-7-7-7-7-7-7-7-7--|--5-----5-5-5-5-5-5-5-5-5-5-5-5--5----x--5-------|
E|--------------------|---------------------------------3----x--3-----3-|


E-------|--------------------------------------------------------||----|
B-------|--------------------------------------------------------||----|
G-------|--------------------------------------------------------||----|
D-------|-5-----5----------5-----5----------5--------------------||----|
A-------|-5---x-5----------5---x-5----------5---5--5--5--5--5--5-||----|
E--3----|-3---x-3----3--3--3---x-3----3--3--3---3--3--3--3--3--3-||----|

                                     GUITAR 2: Guitar 1 plays Section A.

E|---------------------------------------------------------------------|
B|---------------------------------------------------------------------|
G|------------------------------------5-------------------(5)----------|
D|------------------------------------5-------------------(5)----------|
A|------------------------------------3-------------------(3)----------|
E|---------------------------------------------------------------------|
                                      "Of many ways to get what you want..."

E|---------|-----------------------------------------|-----------------|
B|---------|-----------------------------------------|-----------------|
G|---------|--5-------------------(5)----------------|--5--------------|
D|---------|--5-------------------(5)----------------|--5--------------|
A|---------|--3-------------------(3)----------------|--3--------------|
E|---------|-----------------------------------------|-----------------|
              "I use the best, I use the rest..."       "I use the enemy..."

E|---------------------------|-----------------------------------------|
B|---------------------------|-----------------------------------------|
G|------(5)------------------|--5-------------------(5)----------------|
D|------(5)------------------|--5-------------------(5)----x\----------|
A|------(3)------------------|--3-------------------(3)----x\----------|
E|---------------------------|-----------------------------------------|
                                "I use Anarchy..."              *  Repeat Section B.


      LEAD 2: GUITAR 2

E|--|--------------------------------------------------------------------|
B|--|--------------------------------------------------------------------|
G|--|--3/-----11--11--11---9---9/-11--11--12--11--11--11\--9---9/-11--11-|
D|--|---------12--12--12--10--10/-12--12--12--12--12--12\-10--10/-12--12-|
A|--|--------------------------------------------------------------------|
E|--|--------------------------------------------------------------------|


E|-----|----------------------------------------------------------------|
B|-----|----------------------------------------------------------------|
G|--11-|--11--11--11---9---9/-11--11--12-----11--11--11\--9---9/-11--11-|
D|--12-|--12--12--12--10--10/-12--12--12-----12--12--12\-10--10/-12--12-|
A|-----|----------------------------------------------------------------|
E|-----|----------------------------------------------------------------|


E|------|--------------------------------------------------------------|
B|------|--------------------------------------------------------------|
G|--11--|---11--11--11---9---9/-11--11--12------11--11--11\--9---9/-11-|
D|--12--|---12--12--12--10--10/-12--12--12------12--12--12\-10--10/-12-|
A|------|--------------------------------------------------------------|
E|------|--------------------------------------------------------------|


E|------12--|-----------------10--------------10------------10---------|
B|------12--|-------------10--------------10---------------------------|
G|--11------|-11--12b14-----------12b14-----------12b14---------12b14--|
D|--12------|----------------------------------------------------------|
A|----------|----------------------------------------------------------|
E|----------|----------------------------------------------------------|

                            LEAD 2 RHYTHM:  GUITAR 1

E|--10----------10-------||-||------------------------------------------|
B|-----------------------||-||*-----------------------------------------|
G|------12b14------------||-||---7--------------------------------------|
D|-----------------------||-||---7--------------------------------------|
A|-----------------------||-||*--5----5-5-5-5-5-5-5-5-5-5-5-5-5-5-5-5-5-|
E|------------------12\--||-||------------------------------------------|


E|-------------------------------|-------------------------------------|
B|-------------------------------|-------------------------------------|
G|-------------------------------|-7-----------------------------------|
D|-------------------------------|-7-----------------------------------|
A|-5-5-5-5-5-5-5-5-5-5-5-5-5-5-5-|-5---5-5-5-5-5-5-5-5-5-5-5-5-5-5-5-5-|
E|-------------------------------|-------------------------------------|

                                        GUITAR 2: Guitar 1 plays Section A.

E|-----------------------------------||--------------------------------|
B|----------------------------------*||--------------------------------|
G|-----------------------------------||--5-------------------(5)-------|
D|-----------------------------------||--5-------------------(5)-------|
A|-5-5-5-5-5-5-5-5-5-5-5-5-5-5-5-5--*||--3-------------------(3)-------|
E|-----------------------------------||--------------------------------|
                                         "Is this the M.P.L.A...."

E|------------|-----------------------------------------|--------------|
B|------------|-----------------------------------------|--------------|
G|------------|--5-------------------(5)----------------|--5-----------|
D|------------|--5-------------------(5)----------------|--5-----------|
A|------------|--3-------------------(3)----------------|--3-----------|
E|------------|-----------------------------------------|--------------|
                 "Is this the U.D.A...."                   "Is this the I.R.A..."

E|------------------------------|--------------------------------------|
B|------------------------------|--------------------------------------|
G|---------(5)------------------|--5-------------------(5)-------------|
D|---------(5)------------------|--5-------------------(5)-------------|
A|---------(3)------------------|--3-------------------(3)-------------|
E|------------------------------|------------------------------/-------|
                                   "I though it was the U.S.A...." *  Repeat Section B 
END w/ LEAD 3.


         LEAD 3: GUITAR 2 (3 parts)

E|-----|---------------------------------------------------------------|
B|-----|---------------------------------------------------------------|
G|-----|--------------------------------------5h7-9p7-5h7-5~-----------|
D|-----|-------x\---------------------------------------------5--{5}b6-|
A|-----|-------x\------------------2h3-2-5-3---------------------------|
E|-----|-x\----------x\----3h5-3-5-------------------------------------|
               *  Pick Slide

E|--|-------------------------------------------------||-----------------|
B|--|-------------------------------------------------||-------11--------|
G|--|-r-----x-7p5--<5>----------------h5------------\-||-----------15b17-|
D|--|-------------------------------------------------||-----------------|
A|--|-------------------------------------------------||-----------------|
E|--|-------------------------------------------------||-x\--------------|


E|----------------------------------------------------------------------|
B|---13---------13---------13---------13---------13--------13--------13-|
G|------15b17------15b17------15b17------15b17------15b17-----15b17-----|
D|----------------------------------------------------------------------|
A|----------------------------------------------------------------------|
E|----------------------------------------------------------------------|


E|------------|--------------------------------------------------------|
B|-16b18------|-r--13-16-13----13--------------------------------------|
G|------------|-------------15----15-12-15-12-15-12-13-12-13-----------|
D|------------|----------------------------------------------15b17-----|
A|------------|--------------------------------------------------------|
E|------------|--------------------------------------------------------|


E-----------------------||-8-------------------------------------------|
B-----------------------||-8------8------------------------------------|
G-----------------------||----10--8------------5--5~---5--5--5-------5-|
D----r---p13-13~-----\--||-----------10--4h-5--5--5~---5--5--5-4h-5--5-|
A-----------------------||---------------------------------------------|
E-----------------------||---------------------------------------------|


E|---------------|--------------------------------------------------|--|
B|---------------|--------------------------------------------------|--|
G|--5~---5--5--5-|--------5--5--------5--5--------5--5~-------------|--|
D|--5~---5--5--5-|--4h-5--5--5--4h-5--5--5--4h-5--5--5~-------------|--|
A|---------------|------------------------------------------x\------|--|
E|---------------|------------------------------------------x\------|--|


E|---------------------------------------------|-----------------------|
B|---------------------------------------------|-----------------------|
G|--4----------------(4)-------------4------5--|---2---------------0---|
D|---------------------------------------------|-----------------------|
A|---------------------------------------------|-----------------------|
E|---------------------------------------------|-----------------------|
    "Cause I..."                     "Want to be..."


                                                                END: BOTH GUITARS

E|-----------------|-----------------------------------------||--------|
B|-----------------|-----------------------------------------||--------|
G|-----------------|---5-------------------5-----------------||-5------|
D|-----------------|---5-------------------5-----------------||-5------|
A|-----------------|---3-------------------3-----------------||-3------|
E|-----------------|-----------------------------------------||--------|
        "An Anarchist..."              "Again I'm pissed..."    "DESTROY!"

E|-----------------------------------*-|
B|-----------------------------------*-|
G|----------(5)---------------5\-----*-|
D|----------(5)---------------5\-----*-|
A|----------(3)---------------3\-----*-|
E|-----------------------------------*-|
comments
We did not receive enough feedback on this tab! Please rate:
print report bad tab
1 2 3 4 5
1 comment total.
0 reply
frenchabortion wrote on December 3 2007, 05:12 am

ahhh they never covered this song... ever

I want to post or [tab]
guest
You may want to rate the tab now too:
select rating
Please do not post tabs as comments. Select "correction" instead!