Oops, an error
Loading. Please wait.

Earth Ad Bass Tab

ver1
ver1

Album

Whole song

More versions @911Tabs.com
1,641 views 3 this week
1 commentread comment
1 2 3 4 5
not so good
x 1
Autoscroll
+/-
esc
set tempo
stop
Contributor
Difficulty
WARNING: You are trying to view
                                    content from Ultimate-Guitar.com
                                    in an unauthorized application,
                                    which is prohibited.

                                    Please use an official Ultimate
                                    Guitar Tabs application for iPhone,
                                    iPad or Android to access legitimate
                                    chords, guitar, bass, and drum tabs
                                    from Ultimate-Guitar.com database.

                                    Type "ultimate guitar tabs" in Apple
                                    App Store's or Android Market's
                                    search to find the application.
                                  Earth A.D
This was the last release by the legendary Misfits with Danzig as the singer. This is
marked a change in the band. Instead of the 50's style upbeat punk, they went as brutal as
The music is way faster, and most of the catchy little melodys are gone. Still, it 
one of my favorite Misfit albums. I saw nearly all the tabs for songs on this album
wrong, or just didnt sound correct to me. So here you go, what I beilve to the whole 
played correctly.

Track 1: Earth A.D.

Intro (*=let ring)
----------------|
----------------|
-5*-4*-7*-6*----|
----------------|

--------------|
--------------| X2
-5555555444666
--------------

VerseX2
(The spaces between the tens are not pauses. Without them it looks like --101010--| on 
first and open string.)
--------------    ----------------------------------------------------------------|
--------------    ----------------------------------------------------------------|      
 Verse riff(s).
-5555555444666 X2 -999999988810-10-10---------------------------------------------|X2
--------------    ----------------------------------------------------------------|

Chorus X2

                                          End the second one with this.
--------------------------------          ------------------|
--------------------------------          ------------------|
-444444455555554444444----9-9-9-X2        --9-9-9-9-9-9-9---|
--------------------------------          ------------------|


--------------|
--------------| X2
-5555555444666
--------------


Verse


Chorus X4
------------------------------------------------

Track 2: Queen Wasp

Intro/verse: It is kinda hard to hear, but I am sure that the intro riff is just the
riff, you can barley hear it over the scratchy guitar work unless you have it on a high volume.

(Play 4X for intro, and 4 for the verse)
-----------|
-----------|
-55553388--|
-----------|

ChorusX2
---------------------------------|
---------------------------------|
-10-10-10-10-10---10-10--5555555-|
---------------------------------|

Intro/verse riff X8

Chorus

Interlude X7
------------------|
------------------|
-5-5555555-335----|
------------------|
 Pm.......

Chorus

Verse riff X8

Outro riff X4
*=let ring
----------|
----------|
-5*--338--|
----------|


------------------------------------------------

Track 3: Devilock

VerseX3                 Play this at the end of the third part
------------------    -------------------------|
------------------    -------------------887---|
-5555------------------------------------------|


Verse X4
-----------|
-----------|
------887--|
-5555------|
PM...

----------|
----------|
-55555555-
----------

Verse X8


ChorusX4
----------------------|
----------------------|
-7777777333300005-----|
----------------------|

Verse X8

Chorus X8

Outro X8
-------|
-------|
---887-|
-5*----|

-------------------------------------


Track 4: Death Comes Ripping

X4
--------------------------|
--------------------------|
-10-10--------------------|
--------------------------|


Intro/1st verse X3
-----------------------------------|
-----------------------------------|
-999997777777799999-10-10-10-10----|
-----------------------------------|
Pm.................


Chorus X2
------------------------------------|
------------------------------------|
-----------------9999-10-10-10-10---|
-777710-10-10-10--------------------|


Verse X4
-----------------------------------|
-----------------------------------|
-999997777777799999-10-10-10-10----|
-----------------------------------|

Chorus X 2

End chorus riff X2
---------------------------|
---------------------------|
------77779999-10-10-10-10-|
-5555----------------------|

Verse X4

Chorus X2

End Chorus riff X2

Verse riff X4
------------------------------------

Track 5: Green Hell

Verse riff x2
----------------------------------------------------|
----------------------------------------------------|
------------------------------------------7---------|
-55555555555555555555555555555555------8-5--8-55555-|
PM..........................

Pre-chorus X4     Play at the end of fourth
---------------    ----------|
---------------    ----------|
-------------7-    --7777777-|
-55555555-8-5-8    ----------|

Chorus X4                     Play at the end of fourth
-----------------------       ---------|
-----------------------       ---------|
-----------------------       -7777777-|
-55555555-22222222-----       ---------|


Pre-Chorus X4 (dont play the last bit -7777-)

Verse riff x2

Pre-Chorus X6

End with
--
--
--
5-


------------------------------------

Track 6: Mommy, Can I Go Out and Kill Tonight


Verse X3
-------------------------------------------------------------|
-------------------------------------------------------------|
-------------------------------------------------------------|
-7777777777777777---10-10-10-10-10-10-10-10-    -----7-------|


-pause--"Mommy, can I go out and...KILL TONIGHT!"

Chorus X about 43 times     Every 9 times you play C riff, end with this.
----------                  ------------|
----------                  ------------|
---5------                  ------------|
-7---7-5--                  5*----------|

----------------------------------------------------

Track 7: Wolfs Blood

Intro X4
---------------|
-----7-6-------|
-9999----7-9---|
---------------|

Riff A x4
----------|
----------|
-555555-99
----------

Riff B X4
-----------------------|
-----------------------|
--------------------88-|
--10-10-10-10-10-10----|

Riff A
Riff B


Interlude X4
---------------|
-----7-6-------|
-9999----7-9---|
---------------|
PM...

Riff A X2
Riff B x2

Outro
--------------------------------------------------|
-999999910-10-10-10-10-10-10-55555555555-------5--|
--------------------------------------------------|
--------------------------------------------------|


----------------------------------------------------------


Track 8: Demonomania

Intro
-------|
-------|
-3*-3*-
-------

Chorus X2
---------------------|
-44----44---44-------|
----33----22--33-777-|
---------------------|

Verse X2
-----------------|
-----------------|
-----------------|
9-8-9-8-9-8--3*--|

Chorus X4

-------------------------------------


Track 9: Bloodfeast (my favorite off this album)

Intro
------------------------------------|
------------------------------------|
-9*-7*-7*-9*-10-10------------------|
------------------ X3 --5555--------|
--22222220--------    -------555----|

Chorus X2         Play at the end of second part
------------------  ----------|
------------------  ----------|
----------5555----  --4444444-|
-2222222------555-  ----------|

Verse

Chorus

Verse riff played once, only add one more of these on to the first part
---------|
---------|
---------|
-22222220

Chours


Outro
-------------------|
-------------------|
-5454545454545-4---|
-------------------|

---------------------------------------------------------

Track 10: Hellhound

Verse X4
---------------------|
---------77----------|
--999999---7-5-------|
--------------345555-|
              ^^^
             slide

Interlude X3
----------------------------|
----------------------------|
----------------------------|
-4444444333333344444443333333

Verse X6


End with
-----
-----
-----
-3*---

-----------------------------------------

Track 11: Die, Die My Darling


Chorus X3                    End-Chorus Riff: Play at the end of 3rd
-----------------------      ----------------------------|
-----------------------      ----------------------------|
-3-3-3-3-3-3-3---------      --------3333333-------------|
---------------44443333      -1111111-------111111144444-|

Verse X6
-----------------|
-----------------|
-3333333----6655-|
--------4444-----|

Chorus X2

End chorus riff

Verse X6

Chorus X2

End chorus riff

Chorus X10

--------------------------------------------


Track 12: We Bite

Verse X6
--------|
--------|
--------|
-9-7-5--|

Chorus
--------------------------|
--------------------------|
----7-12-7-12-7-12-7-6666-|
--------------------------|

Verse X4

Chorus

Verse  X2

Chorus

Verse X4

-----------------------------

There you go. The whole album. Every now and again I either added to many notes, or
put enough in. Either way, the fingering should be right though. Just play along to the
and you should have it figered out in no time. Have fun.
                              Lord Cancer
comments
We did not receive enough feedback on this tab! Please rate:
print report bad tab
1 2 3 4 5
1 comment total.
0 reply
arrell wrote on November 20 2012, 07:28 pm

You're offkey on a number of songs, if not all.

I want to post or [tab]
guest
You may want to rate the tab now too:
select rating
Please do not post tabs as comments. Select "correction" instead!