Oops, an error
Loading. Please wait.

Famous Monsters Tab

ver1
ver1

Album

More versions @911Tabs.com
11,431 views 9 this week
4 commentsread comments
1 2 3 4 5
accurate
x 10
add to favorites launch autoscroll
font size
0
reset
Autoscroll
+/-
esc
set tempo
stop
Contributor
WARNING: You are trying to view
                                    content from Ultimate-Guitar.com
                                    in an unauthorized application,
                                    which is prohibited.

                                    Please use an official Ultimate
                                    Guitar Tabs application for iPhone,
                                    iPad or Android to access legitimate
                                    chords, guitar, bass, and drum tabs
                                    from Ultimate-Guitar.com database.

                                    Type "ultimate guitar tabs" in Apple
                                    App Store's or Android Market's
                                    search to find the application.
                               Misfits
                             Famous Monsters
Tabbed by: Donald Lawson

All songs by: Michael Graves
Vocals: Michael Graves
Lead Electric: Doyle Wolfgang Von Frankenstein
Bass- Jerry Only
Drums- Dr.Chud

For better Misfits sound use:
Dean Markley Strings
Metal Master octave pedal

====Kong at Gates=======
1|-------------------------------------|
2|-------------------------------------|
3|-------------------------------------|
4|-------------------------------------|
5|----7-6---------7-6-7-6-7-6-7--------|
6|-4-------7-6--4----------------7-6-4-|  Easy?

====Forbidden Zone======                 Verse
1|-------------------------------------|------------------------------------|
2|-------------------------------------|------------------------------------|
3|-------------------------------------|------------------------------------|
4|-55555555-4-222222222----------------|-55555555-22222222------------------|
5|-33333333-2-000000000-3333333333-4-5-|-33333333-00000000-3333333-55555555-|
6|----------------------1111111111-2-3-|-------------------1111111-33333333-|

Pre                                     Chorus               Post Chorus
1|-------------------------------------|--------------------|----------------|
2|-------------------------------------|--------------------|----------------|
3|-------------------------------------|--------------------|----------------|
4|-----------------------------------0-|77777777------------|----------------|
5|-333333333-4-55555555555-4-3-----4---|55555555-5555-77777-|5555555-7777777-|
6|-111111111-2-33333333333-2-1-3-2-----|---------3333-55555-|3333333-5555555-|

=====Lost In space======== Verse
1|--------------------------------------------|
2|--------------------------------------------|
3|--------------------------------------------|
4|------------------------33333---------------|
5|-8-7-5-3-2-0-5555555555-11111-33333-3-------|
6|-------------3333333333-------11111-1-1-1-1-|
Chorus
1|-------------------------------------|
2|-------------------------------------|
3|-------------------------------------|
4|-88888-------------------88888-------|
5|-66666-88888-55555-88888-66666-88888-|
6|-------66666-33333-66666-------66666-|
Bridge                                Outro
1|---------------------------------|------------------------|
2|---------------------------------|------------------------|
3|---------------------------------|------------------------|
4|---------------------------------|-333----------333-------|
5|-2-2------0-1-0----2-2-----0-1-^-|-111-333-5-5--111-333-5-|
6|-0-0--0-3-------3--0-0--0-3------|-----111-3-3------111-3-|

=====Dust to Dust========
  PtA                  ptB       ptC
1|-------------------|---------|-------------------------------------------|
2|-------------------|---------|-------------------------------------------|
3|-444---------------|-444-----|7777777777777777---------------------------|
4|-444-0-555-7-5-7-7-|-444-0-5-|7777777777777777-5-5555-2222-2222----------|
5|-222-0-555-7-5-7-7-|-222-0-5-|5555555555555555-5-5555-2222-2222----------|
6|-----0-333-5-3-5-5-|-----0-3-|-------------------3333-3333-0000-00000000-|

A-11X's     A-3X's      A-3X's  ---Song Form
B-once      B-once      B-once
C-4X's      C-4X's

=====Crawling Eye========
  Pt A
1|------------------------------------------------|
2|------------------------------------------------|
3|------------------------------------------------|
4|--------77-66-------2-2-44-------77-66-222-444--|
5|-4-6666-55-44-4-666-0-0-22-4-666-55-44-000-222--|
6|-2-4444-------2-444--------2-444----------------|
  pt B                       ptC
1|-------------------------|---------------------------------------|
2|-------------------------|---------------------------------------|
3|-------------------------|---------------------------------------|
4|-33333-------66666-------|33333----------------------------------|
5|-11111-44444-44444-66666-|11111-44444-6666666666------------6666-|
6|-------22222-------44444-|------22222-4444444444-4444444444-4444-|
 ptD                         ptE
1|--------------------------|-------------------------|
2|--------------------------|-------------------------|
3|--------------------------|-------------------------|
4|33333--------33333----666-|33333-66666--------------|
5|11111-44-666-11111-44-444-|11111-44444-44444-666666-|
6|------22-444-------22-----|------------22222-444444-|
 ptF                                ptG
1|---------------------------------|----------------|
2|---------------------------------|----------------|
3|---------------------------------|----------------|
4|33333-66666----------------------|----------5-4---|
5|11111-44444-44444-66666----------|-44444444-3-2-6-|
6|------------22222-44444-44444444-|--------------4-|

song form:
A-2X's      D- once
B-3X's      F- once
C- once     G-2X's
D- once     A-4X's
E- once

======Witch Hunt=======

1|--------------------------------------------------------|
2|--------------------------------------------------------|
3|--6----7----2----9--------6----7----2-----9-------------|
4|--6-4X-7-4X-2-4X-9-4X-----6-4X-7-4X-2-4X--9-4X----------|
5|--4----5----0----7--------4----5----0-----7-------------|
6|--------------------------------------------------------|

1|--------------------------------------------------------|
2|--------------------------------------------------------|
3|--6----7----2----9--------7-----------7-----9-----------|
4|--6-4X-7-4X-2-4X-9-4X-----7-16X-7-----7-16X-9-16X-------|
5|--4----5----0----7--------5-----7-16X-5-----7-----------|
6|--------------------------------5-----------------------|
   repeat ^ 4X's

1|--------------------------------------------------------|
2|--------------------------------------------------------|
3|--6----7----2----9-------6----7----2----9---------------|
4|--6-4x-7-4x-2-4x-9-4x----6-4x-7-4x-2-4x-9-4x------------|
5|--4----5----0----7-------4----5----0----7---------------|
6|--------------------------------------------------------|
  Repeat it all 6X's

1|--------------------------------------------------------|
2|--------------------------------------------------------|
3|--7-----------7-----9-----------------------------------|
4|--7-16X-7-----7-16X-9-16X-----7--7-7-7-7-77-56----------|
5|--5-----7-16X-5-----7---------7--7-7-7-7-77-56----------|
6|--------5---------------------5--5-5-5-5-55-34----------|
                                repeat ^4X's

1|---------------|-------------------------|
2|--8B-9B----9B--|-------------------------|
3|---------------|-6----7----2----9--------|
4|--^---4X-----^-|-6-4X-7-4X-2-4X-9-4X-----|
5|---------------|-4----5----0----7--------|
6|---------------|-------------------------|

1|------------------------------------------------------|
2|------------------------------------------------------|
3|7-----------7-----9-----------------------------------|
4|7-16X-7-----7-16X-9-16X-7---------7--7-7-7-7-77-56----|
5|5-----7-16X-5-----7-----7-12X-----7--7-7-7-7-77-56----|
6|------5-----------------5---------5--5-5-5-5-55-34----|

1|------------------------------------------------------|
2|------------------------------------------------------|
3|------------------------------------------------------|
4|7--7--7--7--------------------------------------------|
5|7--7--7--7-6X's---------------------------------------|
6|5--5--5--5--------------------------------------------|

======Scream=====
My all time favorite Misfits song. its all there listen to the
song then play the parts and you will figure it out...

1|------------------------------------------|
2|------------------------------------------|
3|------------------------------------------|
4|-4----------------------------------------|
5|-4--2-9-4-5---2-9-4-5---2-9-4-5---2-9-5-4-|
6|-2----------------------------------------|

1|----------------------------------------------------------|
2|----------------------------------------------------------|
3|--4--2---------4--7---------4--2--7-------4--2------------|
4|--4--2--5------4--7--5------4--2--7-------4--2--5---------|
5|--2--0--5------2--5--5------2--0--5-------2--0--5------9--|
6|--------3------------3--------------------------3---------|

1|-----------------------------------------------------------|
2|-----------------------------------------------------------|
3|---2222222222----4444444444---------------7-7--22222222222-|
4|---2222222222----4444444444------5-5-5-5--7-7--22222222222-|
5|---0000000000----2222222222------5-5-5-5--5-5--00000000000-|
6|---------------------------------3-3-3-3-------------------|

1|-------------------------------------------------------------|
2|-------------------------------------------------------------|
3|---4444444444----------------------7-7-7-7--222222222222222--|
4|---4444444444----55555555555-------7-7-7-7--222222222222222--|
5|---2222222222----55555555555-------5-5-5-5--000000000000000--|
6|-----------------33333333333---------------------------------|

1|---------------------------------------------------------|
2|---------------------------------------------------------|
3|-4444--222222----------------4444--222222----------------|
4|-4444--222222-555555555555---4444--222222--555555555555--|
5|-2222--000000-555555555555---2222--000000--555555555555--|
6|--------------333333333333-----------------333333333333--|

1|----------------------------------------------------------|
2|----------------------------------------------------------|
3|-4444444444444444-------------4444444444444444------------|
4|-4444444444444444--555--444---4444444444444444-555--444---|
5|-2020220202202022--555--444---2020220202202022-555--444---|
6|-------------------333--222--------------------333--222---|

1|---|
2|---|
3|-4-|
4|-4-|
5|-2-|
6|---|  its all there.

====Saturday Night====
1---------------------------------------------------------------|
2---------------------------------------------------------------|
3--666666666666-------------------------------------------------|
4--666666666666----888888888888-----44444444444----6666666666---|
5--444444444444----888888888888-----44444444444----6666666666---|
6------------------666666666666-----22222222222----4444444444---|

1st solo
1---------------------------------------------------------------|
2---------------------------------------------------------------|
3---------------------------------------------------------------|
4---------------------------------------------------------------|
5---4--8-6-4-6-8-4--4-6-8-4-4--6-4-3-3-4-6-4--------------------|
6---------------------------------------------------------------|

1---------------------------------------------------------------|
2---------------------------------------------------------------|
3--666666666666-------------------------------------------------|
4--666666666666----888888888888-----44444444444----6666666666---|
5--444444444444----888888888888-----44444444444----6666666666---|
6------------------666666666666-----22222222222----4444444444---|

1---------------------------------------------------------------|
2---------------------------------------------------------------|
3---------6--------6--------------------------------------------|
4--4---6--6--4--6--6---4--6---3--4--6---------------------------|
5--4---6--4--4--6--4---4--6---3--4--6---------------------------|
6--2---4-----2--4------2--4---1--2--4---------------------------|

1--------------------------------|
2--------------------------------|
3---6---------------6------------|
4---6----8---4---6--6------------|      X2
5---4----8---4---6--4------------|
6--------6---2---4---------------|
 2nd Solo
1---------------------------------------------------------------|
2---------------------------------------------------------------|
3---------------------------------------------------------------|
4---------------------------------------------------------------|
5---4---8-6-4-6-8-4---4-6-8-4-4-6-4--3-3-4-6-6------------------|
6---------------------------------------------------------------|

1---------------------------------------------------------------|
2---------------------------------------------------------------|
3---8888888888----555555555-------------------------------------|
4---8888888888----555555555----6666666666---8888888888----------|   X2
5---6666666666----333333333----6666666666---8888888888----------|
6------------------------------4444444444---6666666666----------|

1-------------------|
2-------------------|
3-----------8-------|
4---6---8---8-------|X 2
5---6---8---6-------|
5---4---6-----------|

1-----------------------------------------------------------------|
2-----------------------------------------------------------------|
3--8--7--5--5--3--------------8-----------------------------------|
4--8--7--5--5--3---6---6--8---8-----------------------------------|
5--6--5--3--3--1---6---6--8---6-----------------------------------|
6------------------4---4--6---------------------------------------|


=====Pumpkin Head======
1|------------------------------------------------|
2|------------------------------------------------|
3|----------------------------8-------------------|
4|-5--------5--7--8--7--3-----8-------------------|
5|-5-----5--------------------6-----3--6--5--3--5-|
6|-3----------------------------------------------|

1|------------------------------|
2|------------------------------|
3|-7--7-7-x--7--7-7-x--7--7-7-x-|
4|-7--7-7-x--7--7-7-x--7--7-7-x-|
5|-5--5-5-x--5--5-5-x--5--5-5-x-|
6|------------------------------|

1|-------------------------------------------------------------|
2|-------------------------------------------------------------|
3|-------------------------------------------------------------|
4|-------------------------------------------------------------|
5|-4/5-5-5-5-5-5--8\7-7-7-7-7-7--4/5-5-5--8\7-7--4/5-5-5-5-5-5-|
6|-2/3-3-3-3-3-3--6\5-5-5-5-5-5--2/3-3-3--6\5-5--2/3-3-3-3-3-3-|

1|-------------------------------------------------------------------|
2|-------------------------------------------------------------------|
3|-------------------------------------------------------------------|
4|-4/5-5-5-5-5-5--8\7-7-7-7-7-7--4/5-5-5--8\7-7--4/5-5-5-5-5-5--8--7-|
5|-2/3-3-3-3-3-3--6\5-5-5-5-5-5--2/3-3-3--6\5-5--2/3-3-3-3-3-3--8--7-|
6|--------------------------------------------------------------6--5-|

1|-------------------------------------------------------------|
2|-------------------------------------------------------------|
3|-------------------------------------------------------------|
4|-------------------------------------------------------------|
5|-4/5-5-5-5-5-5--8\7-7-7-7-7-7--4/5-5-5--8\7-7--4/5-5-5-5-5-5-|
6|-2/3-3-3-3-3-3--6\5-5-5-5-5-5--2/3-3-3--6\5-5--2/3-3-3-3-3-3-|

1|--------------------------------------|---------------------------------|
2|--------------------------------------|---------------------------------|
3|-9------------------------------------|-9-------------------------------|
4|-9-----9-------7-----------11-------9-|-9-----9-----7------6-6-6--4-4-4-|
5|-7-----9-------7----11-11--11--9-9--9-|-7-----9-----7------6-6-6--4-4-4-|
6|-------7-------5-----9--9---9--7-7--7-|-------7-----5------4-4-4--2-2-2-|

======Scarecrow Man======              verse
1|-----------------------------------|---------------------------------------|
2|-----------------------------------|---------------------------------------|
3|-----------------------------------|---------------------------------------|
4|-----------------------------------|---------------------------------------|
5|-----------------------------------|---------------------------------------|
6|-0-7-0-7-0--0-7-0-7-0--0-7-0-7-0-0-|-0-3-0-0-3-0-3-0-0-3--0-3-0-0-3-6-66-6-|
 pre chorus       Chorus
1|---------------|----------------------------------|
2|---------------|----------------------------------|
3|---------------|----------------------------------|
4|---------------|----------------------------------|
5|-5-3-2-5-3-2-3^|----------------------------------|
6|---------------|-0-3-0-3-0-3-0--3-0-3-0-3-7-5-3-2-|
  solo
1----------------------------------------------------|
2------------------10-10-12-12-10-10-----------------|
3--9-9-11-11-12-12-------------------12-12-11-11-----|
4----------------------------------------------------|
5----------------------------------------------------|
6----------------------------------------------------|

1-----------------------------|
2-----------------------------|
3--12-12-11-11-12-12-11-9-----|
4-----------------------------|
5-----------------------------|
6-----------------------------|

1-----------------------------------------------22b-|
2--10--8---7-8-10-12-----15--13--12-----------------|
3---------------------------------------------------|
4---------------------------------------------------|
5---------------------------------------------------|
6---------------------------------------------------|
outro
1---------------------------------|---------------------------------|
2---------------------------------|---------------------------------|
3---------------------------------|---------------------------------|
4---------------------------------|---------------------------------|
5---------------------------------|---------------------------------|
6-0-----7p0-7p0---0-----7p0-7p0---|-0-----7p0-7p0---7---5---3---2---|

=====Die Monster Die=======
1|-5-5-------2-2------|-5-5------0-|
2|-7-7--4-4--4-4--5-5-|-7-7--4-4-2-|
3|-7-7--6-6--4-4--7-7-|-7-7--6-6-2-|
4|------6-6-------7-7-|------6-6---|
5|--------------------|------------|
6|--------------------|------------|  easy?

======Living Hell=========
1----------|----------------------|
2-fades in-|-----play-4-times-----|
3----------|----------------------|
4-----7----|-7-7-7-7-7-7-7--3---5-|
5-----7----|-7-7-7-7-7-7-7--3---5-|
6-----5----|-5-5-5-5-5-5-5--1---3-|

|-------------------------|------------------------------------------------|
|------play-8-times-------|------------------------------------------------|
|-------------------------|------------------------------------------------|
|-7-7-7-7-7-7-7-----------|-3------7---2-----------------------------------|
|-7-7-7-7-7-7-7-----------|-3------7---2---------3-3-3-3-3-3-3-3-3-3-3-3---|
|-5-5-5-5-5-5-5--1~~--3~~-|-1------5---0---------1-1-1-1-1-1-1-1-1-1-1-1-\-|

|--------------------------------------------------|
|--------------------------------------------------|
|--------------------------------------------------|
|-3---------7---------5---------5-5-5-5-5-5-5-5-5--|
|-3---------7---------5---------5-5-5-5-5-5-5-5-5--|
|-1---------5---------3---------3-3-3-3-3-3-3-3-3\-|

|-------------------------------------------|-------------------------|
|----------------play-3-times---------------|-------------------------|
|-------------------------------------------|-------------------------|
|-7-7-7-7-7-7-----------3-3-3-3-3-5-5-5-5-5-|-3---------2-------------|
|-7-7-7-7-7-7--7--5--3--3-3-3-3-3-5-5-5-5-5-|-3---------2-------------|
|-5-5-5-5-5-5-----------1-1-1-1-1-3-3-3-3-3-|-1---------0-----0---3~~-|

|----------------------|
|-----play-4-times-----|
|----------------------|
|-7-7-7-7-7-7-7--3---5-|
|-7-7-7-7-7-7-7--3---5-|
|-5-5-5-5-5-5-5--1---3-|

|-------------------------|------------------------------------------------|
|------play-8-times-------|------------------------------------------------|
|-------------------------|------------------------------------------------|
|-7-7-7-7-7-7-7-----------|-3------7---2-----------------------------------|
|-7-7-7-7-7-7-7-----------|-3------7---2---------3-3-3-3-3-3-3-3-3-3-3-3---|
|-5-5-5-5-5-5-5--1~~--3~~-|-1------5---0---------1-1-1-1-1-1-1-1-1-1-1-1-\-|

|--------------------------------------------------|
|--------------------------------------------------|
|--------------------------------------------------|
|-3---------7---------5---------5-5-5-5-5-5-5-5-5--|
|-3---------7---------5---------5-5-5-5-5-5-5-5-5--|
|-1---------5---------3---------3-3-3-3-3-3-3-3-3\-|

|-------------------------------------------|-------------------------|
|----------------play-3-times---------------|-------------------------|
|-------------------------------------------|-------------------------|
|-7-7-7-7-7-7-----------3-3-3-3-3-5-5-5-5-5-|-3---------2-------------|
|-7-7-7-7-7-7--7--5--3--3-3-3-3-3-5-5-5-5-5-|-3---------2-------------|
|-5-5-5-5-5-5-----------1-1-1-1-1-3-3-3-3-3-|-1---------0-----0---3~~-|

|----------------------|------------------|
|-----play-4-times-----|------------------|
|----------------------|------------------|
|-7-7-7-7-7-7-7--3---5-|-7~~--------------|
|-7-7-7-7-7-7-7--3---5-|-7~~--w/-feedback-|
|-5-5-5-5-5-5-5--1---3-|-5~~--------------|

|---------------------------------------------------------|
|---------------------------------------------------------|
|---------------------------------------------------------|
|-3---------7---------2-----------------------------------|
|-3---------7---------2---------3-3-3-3-3-3-3-3-3-3-3-3---|
|-1---------5---------0---------1-1-1-1-1-1-1-1-1-1-1-1-\-|

|--------------------------------------------------|
|--------------------------------------------------|
|--------------------------------------------------|
|-3---------7---------5---------5-5-5-5-5-5-5-5-5--|
|-3---------7---------5---------5-5-5-5-5-5-5-5-5--|
|-1---------5---------3---------3-3-3-3-3-3-3-3-3\-|

|-------------------------------------------|-------------------------|
|----------------play-3-times---------------|-------------------------|
|-------------------------------------------|-------------------------|
|-7-7-7-7-7-7-----------3-3-3-3-3-5-5-5-5-5-|-3---------2-------------|
|-7-7-7-7-7-7--7--5--3--3-3-3-3-3-5-5-5-5-5-|-3---------2-------------|
|-5-5-5-5-5-5-----------1-1-1-1-1-3-3-3-3-3-|-1---------0-----0---3~~-|

|----------------------|---|
|-----play-4-times-----|---|
|----------------------|---|
|-7-7-7-7-7-7-7--3---5-|-7-|
|-7-7-7-7-7-7-7--3---5-|-7-|
|-5-5-5-5-5-5-5--1---3-|-5-|

its all in order damnit. alot of typing. I'm almost done. talk about living hell

=====Descending Angel=======
1|------------------------------|
2|------------------------------|
3|------------------------------|
4|------------------------------|
5|-99999-1212121212-77777-44444-|
6|-77777-1010101010-55555-22222-| just repeat this throughout the song till solo.

solo
{------------------------------------------------------------------------}
{------------------------------------------------------------------------}
{------------------------------------------------------------------------}
{1/8\1----10-11-----11-10-9-10---10h11p\8---8h9p/11\1-}------------------}
{------------------------------------------------------------------------}
{------------------------------------------------------------------------}

{-----------------------------------------------------------------------}
{-----------------------------------------------------------------------}
{----------------------------------12p11p10 x3-----11~--10~~\-----------}
{-4/12\4----12-14--11-12------------------------------------------------}
{-----------------------------------------------------------------------}
{-----------------------------------------------------------------------}

{------------------------------------------------------------------}
{------------------------------------------------------------------}
{------------------------------------------------------------------}
{--8-7------x4}----6-5----x4}----4-3----x2}-------4--3h4p3--x2}----}
{--------9----}--------7----}--------5----}-----5------------------}
{------------------------------------------------------------------}

{----------------------------------------}
{----------------------------------------}
{----------------------------------------}
{----8-7-----8-7--------8/---------------}
{-7-------8--------8-7-------------------}
{----------------------------------------}

====Hunting Humans======
1|-------------------------------------------------|
2|-------------------------------------------------|
3|-------------------------------------------------|
4|-2-2-2-2-2-2-2-2-2-2-2-2-4-4-4-4-4-4-4-4-4-4-4-4-|
5|-2-2-2-2-2-2-2-2-2-2-2-2-4-4-4-4-4-4-4-4-4-4-4-4-|
6|-0-0-0-0-0-0-0-0-0-0-0-0-2-2-2-2-2-2-2-2-2-2-2-2-|

1|-------------------------------------------------|
2|-------------------------------------------------|
3|-------------8-8-8-8-8-8-9-9-9-9-9-9-9-9-9-9-9-9-|
4|-9-9-9-9-9-9-8-8-8-8-8-8-9-9-9-9-9-9-9-9-9-9-9-9-|
5|-9-9-9-9-9-9-6-6-6-6-6-6-7-7-7-7-7-7-7-7-7-7-7-7-|
6|-7-7-7-7-7-7-------------------------------------|

1|--------------------------------------------------------|
2|--------------------------------------------------------|
3|--------------------------------------------------------|
4|-9999999-8888888-6666666-4444444-2222222-4444444444444--|
5|-9999999-8888888-6666666-4444444-2222222-4444444444444--|
6|-7777777-6666666-4444444-2222222-0000000-2222222222222--|

1|-------------------------------------------------|
2|-------------------------------------------------|
3|-4-4-4-4-4-4-4-4-4-4-4-4-------------------------|
4|-4-4-4-4-4-4-4-4-4-4-4-4-2-2-2-2-2-2-4-4-4-4-4-4-|
5|-2-2-2-2-2-2-2-2-2-2-2-2-2-2-2-2-2-2-4-4-4-4-4-4-|
6|-------------------------0-0-0-0-0-0-2-2-2-2-2-2-|


======Them======
1-----------------|-----------------|-----------------|-----------------|
2-----------------|-----------------|-----------------|-----------------|
3-----------------|-----------------|-----------------|-----------------|
4-----------------|-----------------|-----------------|-----------------|
5-----------------|-----------------|-----------------|-----------------|
6-0-0-3-0-6-5-0-3-|-0-0-3-0-6-5-0-3-|-0-0-3-0-6-5-0-3-|-1---1---1-----1-|

e|------------------------------------------------------------|
B|------------------------------------------------------------|
G|-9-9-9-9-9-9-9----------------------------------------------|
D|-9-9-9-9-9-9-9--9-9-9-9-9-9-9--7-7-7-7-7-7-7--9-9-9-9-9-9-9-|
A|-7-7-7-7-7-7-7--9-9-9-9-9-9-9--7-7-7-7-7-7-7--9-9-9-9-9-9-9-|
E|----------------7-7-7-7-7-7-7--5-5-5-5-5-5-5--7-7-7-7-7-7-7-|

=====Fiend Club========
Intro:
1|-----------------------------|
2|-----------------------------|
3|-----------------------------|
4|-6------------2-----------4--|
5|-6------------2-----------4--|
6|-4--7-4-7-4-7-0-0-0-0-0-0-2--|

Verse:                        Verse End:
1|---------------------------|------------------------------------|
2|---------------------------|------------------------------------|
3|---------------------------|------------------------------------|
4|---------------------------|-4--6-6-6-6-6-4-2--4-6-6-6-6-6-4-2--|
5|---------------------------|-4--6-6-6-6-6-4-2--4-6-6-6-6-6-4-2--|
6|-4-7-4-7-4-7-0-0-0-0-0-0-2-|-2--4-4-4-4-4-2-0--2-4-4-4-4-4-2-0--|

Chorus:                     Chorus End:
1|------------------------------|-----------------------|
2|------------------------------|-----------------------|
3|-----------------1--1-1-------|--------------1--1-1-1-|
4|-4--4-4--8--8-8--2--2-2-------|-6--6-6-6--6--2--2-2-2-|
5|-2--2-2--6--6-6--2--2-2--4--4-|-4--4-4-4--4--2--2-2-2-|
6|-------------------------2--2-|-----------------------|

outro
1|---|
2|---|
3|-4-|
4|-4-|
5|-2-|
6|---|


=====Them=======
play this| then the same chords.
1|---------------------------------------------------------|
2|---------------------------------------------------------|
3|---------------------------------------------------------|
4|---------------------------------------------------------|
5|---------------------------------------------------------|
6|-0-0-3-0-6-5-0-3--0-0-3-0-6-5-0-3--0-0-3-0-6-5-0-3-1-1-1-|

=====Helana======

1-------------------------------------------|
2-------------------------------------------|
3-------------------------------------------|
4----6--9--4---6--9--4----------------------|
5----6--9--4---6--9--4----------------------|
6----4--7--2---4--7--2----------------------|

1------------------------------------------------------|
2------------------------------------------------------|
3------------------------------------------------------|
4--6--9---4-5-6----------------------------------------|
5--6--9---4-5-6----------------------------------------|
6--4--7---2-3-4----------------------------------------|

1------------------------------------------------------|
2------------------------------------------------------|
3----9--10--7-9--7--5--7--5--3-------------------------|
4----9--10--7-9--7--5--7--5--3--5--3-------------------|
5----7--8---5-7--5--3--5--3--1--5--3-------------------|
6-------------------------------3--1-------------------|
thats like the whole song.. ONE MORE to go then I'm fin'

=====Kong Unleashed========
1|--------------------------------------------|
2|--------------------------------------------|
3|--------------------------------------------|
4|--------------------------------------------|
5|-6-1-0--------3-2-0----------------------0--|
6|--------2-1-----------2-1-2-1-2-1-2-1-0-----|

omg its done.. I hope that helps any Misfits fan.
questions or comments AIM- Misfits3388

UPDATED Aug. 12. 2004
comments
print report bad tab
4 comments total. Showing first comments.
-1 reply
hahahahcoolsd wrote on January 10 2004, 12:00 am

sucks

+1 reply
SkaterD2002 wrote on January 16 2004, 12:00 am

if it sucks dont look at it. jackass

0 reply
misfitskid16 wrote on January 23 2004, 12:00 am

this cd is sweet..awesome songs

I want to post or [tab]
guest
You may want to rate the tab now too:
select rating
Please do not post tabs as comments. Select "correction" instead!