Oops, an error
Loading. Please wait.

Famous Monsters Tab

ver2
ver2

Album

More versions @911Tabs.com
5,406 views 18 this week
2 commentsread comments
1 2 3 4 5
excellent!
x 1
add to favorites launch autoscroll
font size
0
reset
Autoscroll
+/-
esc
set tempo
stop
Contributor
Difficulty
intermediate
WARNING: You are trying to view
                                    content from Ultimate-Guitar.com
                                    in an unauthorized application,
                                    which is prohibited.

                                    Please use an official Ultimate
                                    Guitar Tabs application for iPhone,
                                    iPad or Android to access legitimate
                                    chords, guitar, bass, and drum tabs
                                    from Ultimate-Guitar.com database.

                                    Type "ultimate guitar tabs" in Apple
                                    App Store's or Android Market's
                                    search to find the application.
Misfits: Famous Monsters
For Better Misfits Sound Use:
Dead Markley Strings
Metal Master Pedals

| PH Pinch harmonic
| NB Neck bend
| :  Hold chord
| /  slide up
| \  slide down
| h  hammer-on
| p  pull-off
| ~  vibrato
| +  harmonic
| x  Mute note


Kong At The Gates

E---------------------------------------------
B---------------------------------------------
G--------------------------------------------- Repeat A Bunch
D---------------------------------------------
A----7-6------------7-6-7-6-7-6-7-6-7-6-------
E-4-------7-6---4-----------------------4-----

Forbidden Zone

(Intro)
e|-----------------------------------------------------------------------------|
B|-----------------------------------------------------------------------------|
G|-5-5-5-5-5-5-5-5--5-4-2--2-2-2-2-2-2-2-2-------------------------------------|
D|-5-5-5-5-5-5-5-5--5-4-2--2-2-2-2-2-2-2-2-5-3--3-3-3-3-3-3-3-3--3-4-5---------|
A|-3-3-3-3-3-3-3-3--3-2-0--0-0-0-0-0-0-0-0-5-3--3-3-3-3-3-3-3-3--3-4-5---------|
E|-----------------------------------------3-1--1-1-1-1-1-1-1-1--1-2-3---------|

 (Verse 1)
e|-----------------------------------------------------------------------------|
B|-----------------------------------------------------------------------------|
G|-5-5-5-5-5-5-5-5-2-2-2-2-2-2-2-2---------------------------------------------|
D|-5-5-5-5-5-5-5-5-2-2-2-2-2-2-2-2-3-3-3-3-3-3-3-3-3-5-5-5-5-5-5-5-5-----------|
A|-3-3-3-3-3-3-3-3-0-0-0-0-0-0-0-0-3-3-3-3-3-3-3-3-3-5-5-5-5-5-5-5-5-----------|
E|---------------------------------1-1-1-1-1-1-1-1-1-3-3-3-3-3-3-3-3-----------|

 (Pre Chorus)
e|-----------------------------------------------------------------------------|
B|-----------------------------------------------------------------------------|
G|-----------------------------------------------------------------------------|
D|-3-3-3-3-3-3-3-3--3-4-5--5-5-5-5-5-5-5-5-5--5-4-3--3-3-3-3-3-3-3-3-----------|
A|-3-3-3-3-3-3-3-3--3-4-5--5-5-5-5-5-5-5-5-5--5-4-3--3-3-3-3-3-3-3-3----0------|
E|-1-1-1-1-1-1-1-1--1-2-3--3-3-3-3-3-3-3-3-3--3-2-1--1-1-1-1-1-1-1-1-3-2--4----|

 (Chorus)
e|-----------------------------------------------------------------------------|
B|-----------------------------------------------------------------------------|
G|-7-7-7-7-7-7-7-7-------------------------------------------------------------|
D|-7-7-7-7-7-7-7-7-5-5-5-5-7-7-7-7---------------------------------------------|
A|-5-5-5-5-5-5-5-5-5-5-5-5-7-7-7-7---------------------------------------------|
E|-----------------3-3-3-3-5-5-5-5---------------------------------------------|

 (Post Chorus)
e|-----------------------------------------------------------------------------|
B|-----------------------------------------------------------------------------|
G|-----------------------------------------------------------------------------|
D|-5-5-5-5-5-5-5-5-7-7-7-7-7-7-7-7---------------------------------------------|
A|-5-5-5-5-5-5-5-5-7-7-7-7-7-7-7-7---------------------------------------------|
E|-3-3-3-3-3-3-3-3-5-5-5-5-5-5-5-5---------------------------------------------|

Order:
Intro              1x
Verse 1            3x
Pre Chorus         1x
Chorus             3x
Post Chorus        1x
Intro              1x
Verse 1            3x
Pre Chorus         1x
Chorus             3x
Post Chorus        1x
Chorus             3x
Post Chorus        1x
Intro              2x

Lost In Space

(intro)
eb|-----------------------|
Bb|-----------------------|
Gb|-----------------------|
Db|--3PH-2PH-0PH----------|
Ab|---------------3-2-0---|
Eb|-----------------------|

(riff 2)
eb|-------------------------------------------------------|
Bb|-------------------------------------------------------|
Gb|-------------------------------------------------------|
Db|----------------------------3--3-3--3-3----------------|
Ab|--5--5-5--5-5--5--5-5--5-5--1--1-1--1-1--3--3-3--3-3---|
Eb|--3--3-3--3-3--3--3-3--3-3---------------1--1-1--1-1---|

(chorus a)                                                   (chorus b)
eb|----------------------------------------------------|----------------------|
Bb|----------------------------------------------------|----------------------|
Gb|----------------------------------------------------|----------------------|
Db|--8--8-8--8-8---------------------------------------|8--8-8-8-8------------|
Ab|--6--6-6--6-6--8--8-8--8-8--5--5-5--5-5--8--8-8--8-8|6--6-6-6-6--8--8-8-8-8|
Eb|---------------6--6-6--6-6--3--3-3--3-3--6--6-6--6-6|------------6--6-6-6-6|

(riff 4a)                        (riff 4b)
eb|----------------------------|---------------------------------------------|
Bb|----------------------------|---------------------------------------------|
Gb|----------------------------|---------------------------------------------|
Db|------3--3-3-3-3------------|-----------------3--3-3-3-3------------------|
Ab|--5:--1--1-1-1-1-3--3-3-3-3-|--5-5-5-5-5-5-5--1--1-1-1-1--3--3-3-3-3------|
Eb|--3:-------------1--1-1-1-1-|--3-3-3-3-3-3-3--------------1--1-1-1-1------|
(PM)        .   .      .   .        .   .   .       .   .       .   .

(riff 5)
eb|---------------------------------------------------------------------------|
Bb|---------------------------------------------------------------------------|
Gb|---------------------------------------------------------------------------|
Db|---------------------------------------------------------------------------|
Ab|--2:----5-7-8-7-5--2:--7~---5-7-8-7-5--2NB---5-7-8-7-5--2:--7~---5-7-8:----|
Eb|--0:--0-3-5-6-5-3--0:-----0-3-5-6-5-3--0---0-3-5-6-5-3--0:-----0-3-5-6:----|

(outro)
eb|------------------------|
Bb|------------------------|
Gb|------------------------|
Db|--3-3-3-----------------|
Ab|--1-1-1--3-3-3---5:-----|
Eb|---------1-1-1-0-3:-----|

order:
intro    1x
verse    3x(slide down neck 2nd time and end with a G chord)
intro    1x
verse    8x(Some chords are held sometimes,end with pick scratch up the neck)
chorus a 3x
chorus b 1x 
riff 4a  1x
riff 4b  1x
riff 4a  2x(end with pick scratch up neck)
chorus a 3x
chorus b 1x
riff 5   1x
chorus a 3x
chorus b 1x(end with G chord)
chorus a 3x
chorus b 1x(end with G chord)
outro    3x

Dust To Dust

|----------------------------|----------------------------|
|--------play-4-times--------|--------play-4-times--------|
|-4--------------------------|-4--------------------------|
|-4-----2-----5--------------|-4-----2-----5--------------|
|-2-----2-----5--------7-5-7-|-2-----2-----5--------7-5-7-|
|-------0-----3--------5-3-5-|-------0-----3--------5-3-5-|
                                                    pm---
|----------------------------|---------------|
|--------play-3-times--------|---------------|
|-4--------------------------|-4-------------|
|-4-----2-----5--------------|-4-----2-----5-|
|-2-----2-----5--------7-5-7-|-2-----2-----5-|
|-------0-----3--------5-3-5-|-------0-----3-|

|----------------------|
|-----play-4-times-----|
|-7--------------------|
|-7-----------5------2-|
|-5-----------5------2-|
|-------------3------0-|

|----------------------------|-------------------------------|
|--------play-4-times--------|----------play-4-times---------|
|-4--------------------------|-4-4-4-------------------------|
|-4-----2-----5--------------|-4-4-4-2-2-2-5-5-5-5-5-5-------|
|-2-----2-----5--------7-5-7-|-2-2-2-2-2-2-5-5-5-5-5-5-7-5-7-|
|-------0-----3--------5-3-5-|-------0-0-0-3-3-3-3-3-3-5-3-5-|
                               pm---------------------------

|----------------------------|---------------|
|--------play-3-times--------|---------------|
|-4--------------------------|-4-------------|
|-4-----2-----5--------------|-4-----2-----5-|
|-2-----2-----5--------7-5-7-|-2-----2-----5-|
|-------0-----3--------5-3-5-|-------0-----3-|

|----------------------|
|-----play-4-times-----|
|-7--------------------|
|-7-----------5------2-|
|-5-----------5------2-|
|-------------3------0-|

|----------------------------|---------------|
|--------play-3-times--------|---------------|
|-4--------------------------|-4-------------|
|-4-----2-----5--------------|-4-----2-----5-|
|-2-----2-----5--------7-5-7-|-2-----2-----5-|
|-------0-----3--------5-3-5-|-------0-----3-|

|------------------------|
|-------(feedback)-------|
|------------------------|
|-4------5------6------7-|
|-2------3------4------5-|
|------------------------|

|----------------------|
|-----play-4-times-----|
|-7--------------------|
|-7-----------5------2-|
|-5-----------5------2-|
|-------------3------0-|

|----------------------------|---------------|
|--------play-3-times--------|---------------|
|-4--------------------------|-4-------------|
|-4-----2-----5--------------|-4-----2-----5-|
|-2-----2-----5--------7-5-7-|-2-----2-----5-|
|-------0-----3--------5-3-5-|-------0-----3-|

Crawling Eye

1|------------------------------------------------|
2|------------------------------------------------|
3|------------------------------------------------|
4|--------77-66-------2-2-44-------77-66-222-444--|
5|-4-6666-55-44-4-666-0-0-22-4-666-55-44-000-222--|
6|-2-4444-------2-444--------2-444----------------|
  pt B                       ptC
1|-------------------------|---------------------------------------|
2|-------------------------|---------------------------------------|
3|-------------------------|---------------------------------------|
4|-33333-------66666-------|33333----------------------------------|
5|-11111-44444-44444-66666-|11111-44444-6666666666------------6666-|
6|-------22222-------44444-|------22222-4444444444-4444444444-4444-|
 ptD                         ptE
1|--------------------------|-------------------------|
2|--------------------------|-------------------------|
3|--------------------------|-------------------------|
4|33333--------33333----666-|33333-66666--------------|
5|11111-44-666-11111-44-444-|11111-44444-44444-666666-|
6|------22-444-------22-----|------------22222-444444-|
 ptF                                ptG
1|---------------------------------|----------------|
2|---------------------------------|----------------|
3|---------------------------------|----------------|
4|33333-66666----------------------|----------5-4---|
5|11111-44444-44444-66666----------|-44444444-3-2-6-|
6|------------22222-44444-44444444-|--------------4-|

song form:
A-2X's      D- once
B-3X's      F- once
C- once     G-2X's
D- once     A-4X's
E- once

Witch Hunt

(riff 1)
eb|-------------------------------------------|
Bb|-------------------------------------------|
Gb|-------------------------------------------|
Db|--7-7-7-7--8-8-8-8-----------10-10-10-10---|
Ab|--5-5-5-5--6-6-6-6--8-8-8-8--8--8--8--8----|
Eb|--5-5-5-5--6-6-6-6--6-6-6-6--8--8--8--8----|

(riff 2)
eb|-------------------------------------------|
Bb|-------------------------------------------|
Gb|-------------------------------------------|
Db|--7-7-7-7--8-8-8-8-----------10-10-10-10---|
Ab|--5-5-5-5--6-6-6-6--8-8-8-8--8--8--8--8----|
Eb|--5-5-5-5--6-6-6-6--6-6-6-6--8--8--8--8----|
(PM) . . . .  . . . .  . . . .  .  .  .  .

(riff 3)
eb|---------------------------------------------------------------------------|
Bb|---------------------------------------------------------------------------|
Gb|---------------------------------------------------------------------------|
Db|--8--8--8--8--8--8--------------------8--8--8--8--8--8---------------------|
Ab|--6--6--6--6--6--6--8--8--8--8--8--8--6--6--6--6--6--6--3--3--3--3--3--3---|
Eb|--------------------6--6--6--6--6--6--------------------1--1--1--1--1--1---|

(riff 4a)                  (riff 4b)
eb|-----------------------|---------------------------------------------------|
Bb|-----------------------|---------------------------------------------------|
Gb|-----------------------|---------------------------------------------------|
Db|-----------------------|---------------------------------------------------|
Ab|--8--8--8--8-8--5--7---|--8--8--8--8-8-8-8-8-------------------------------|
Eb|--6--6--6--6-6--3--5---|--6--6--6--6-6-6-6-6-------------------------------|

(solo)
eb|---------------------------------------------------------------------------|
Bb|---8^--9^--8^--9^--8^-9^-8^-9^-8^-9^-11^-----------------------------------|
Gb|---------------------------------------------------------------------------|
Db|---------------------------------------------------------------------------|
Ab|---------------------------------------------------------------------------|
Eb|---------------------------------------------------------------------------|



order:
riff 1       2x
riff 2       4x
riff 3       1x
riff 1       2x
riff 2       4x
riff 3       1x
riff 4a      3x
riff 4b      1x
solo         1x
riff 3       1x
riff 4a      3x
riff 4b      1x

Scream!

1|------------------------------------------|
2|------------------------------------------|
3|------------------------------------------|
4|-4----------------------------------------|
5|-4--2-9-4-5---2-9-4-5---2-9-4-5---2-9-5-4-|
6|-2----------------------------------------|

1|----------------------------------------------------------|
2|----------------------------------------------------------|
3|--4--2---------4--7---------4--2--7-------4--2------------|
4|--4--2--5------4--7--5------4--2--7-------4--2--5---------|
5|--2--0--5------2--5--5------2--0--5-------2--0--5------9--|
6|--------3------------3--------------------------3---------|

1|-----------------------------------------------------------|
2|-----------------------------------------------------------|
3|---2222222222----4444444444---------------7-7--22222222222-|
4|---2222222222----4444444444------5-5-5-5--7-7--22222222222-|
5|---0000000000----2222222222------5-5-5-5--5-5--00000000000-|
6|---------------------------------3-3-3-3-------------------|

1|-------------------------------------------------------------|
2|-------------------------------------------------------------|
3|---4444444444----------------------7-7-7-7--222222222222222--|
4|---4444444444----55555555555-------7-7-7-7--222222222222222--|
5|---2222222222----55555555555-------5-5-5-5--000000000000000--|
6|-----------------33333333333---------------------------------|

1|---------------------------------------------------------|
2|---------------------------------------------------------|
3|-4444--222222----------------4444--222222----------------|
4|-4444--222222-555555555555---4444--222222--555555555555--|
5|-2222--000000-555555555555---2222--000000--555555555555--|
6|--------------333333333333-----------------333333333333--|

1|----------------------------------------------------------|
2|----------------------------------------------------------|
3|-4444444444444444-------------4444444444444444------------|
4|-4444444444444444--555--444---4444444444444444-555--444---|
5|-2020220202202022--555--444---2020220202202022-555--444---|
6|-------------------333--222--------------------333--222---|

1|---|
2|---|
3|-4-|
4|-4-|
5|-2-|
6|---|  

Saturday Night

(Intro)
                 
e|---------------------------------------------------------------|
B|---------------------------------------------------------------|
G|--666666666666-------------------------------------------------|
D|--666666666666----888888888888-----44444444444----6666666666---|
A|--444444444444----888888888888-----44444444444----6666666666---|
E|------------------666666666666-----22222222222----4444444444---|

  About 10 strums per chord, Some of the strumming isnt full, and some of the chords
      ring out longer than others, but it can be played like the above
              

                   (Then the first solo)

e|---------------------------------------------------------------|
B|---------------------------------------------------------------|
G|---------------------------------------------------------------|
D|---------------------------------------------------------------|
A|---4--8-6-4-6-8-4--4-6-8-4-4--6-4-3-3-4-6-4--------------------|
E|---------------------------------------------------------------|

                         (Verse )  

e|---------------------------------------------------------------|
B|---------------------------------------------------------------|
G|--666666666666-------------------------------------------------|
D|--666666666666----888888888888-----44444444444----6666666666---|
A|--444444444444----888888888888-----44444444444----6666666666---|
E|------------------666666666666-----22222222222----4444444444---|


Repeat until the bit; ‘And I can remember when I saw her last…’ (00:57)

                       Which goes like:
e|---------------------------------------------------------------|
B|---------------------------------------------------------------|
G|---------6--------6--------------------------------------------|
D|--4---6--6--4--6--6---4--6---3--4--6---------------------------|
A|--4---6--4--4--6--4---4--6---3--4--6---------------------------|
E|--2---4-----2--4------2--4---1--2--4---------------------------|

                       (Chorus 1) 
 
e|--------------------------------|
B|--------------------------------|
G|---6---------------6------------|
D|---6----8---4---6--6------------|      X2
A|---4----8---4---6--4------------|
E|--------6---2---4---------------|

                     ( Solo 2 )

e|---------------------------------------------------------------|
B|---------------------------------------------------------------|
G|---------------------------------------------------------------|
D|---------------------------------------------------------------|
A|---4---8-6-4-6-8-4---4-6-8-4-4-6-4--3-3-4-6-6------------------|
E|---------------------------------------------------------------|


                         (Verse 2)

e|---------------------------------------------------------------|
B|---------------------------------------------------------------|
G|---8888888888----555555555-------------------------------------|
D|---8888888888----555555555----6666666666---8888888888----------|   X2
A|---6666666666----333333333----6666666666---8888888888----------|
E|------------------------------4444444444---6666666666----------|

             Around 10 times strum each chord again


                     (Bridge 2)                 

e|-------------------|
B|-------------------|
G|-----------8-------|
D|---6---8---8-------|     X 2
A|---6---8---6-------|
E|---4---6-----------|

    
                       Then...

e|----------------------------|
B|----------------------------|
G|----------------------------|
D|--6--8--5--6--6--8----------|
A|--6--8--5--6--6--8----------|
E|--4--6--3--4--4--6----------|

        
        (Chorus 2)

e|------------------------------|
B|------------------------------|
G|--8---5--------8--------------|     X2
D|--8---5--6--8--8--------------|
A|--6---3--6--8--6--------------|
E|---------4--6-----------------|

                    (Outro)

e|---------------------------------------------------------------|
B|---------------------------------------------------------------|
G|--8--7--5--5--3--------------8---------------------------------|
D|--8--7--5--5--3---6---6--8---8---------------------------------|
A|--6--5--3--3--1---6---6--8---6---------------------------------|
E|------------------4---4--6-------------------------------------|

Pumpkin Head

 G                    F          D#                D
|---------------[2-guitars-arrange-for-one]-----------|
|-----------------------play-2-times------------------|
|---------------------------------8-------------------|
|-5--------5--7--8--7--3----------8-------------------|
|-5-----5-------------------------6-----3--6--5--3--5-|
|-3---------------------------------------------------|
                                     
|------------------------------|
|---------play-2-times---------|
|-7--7-7-x--7--7-7-x--7--7-7-x-|
|-7--7-7-x--7--7-7-x--7--7-7-x-|
|-5--5-5-x--5--5-5-x--5--5-5-x-|
|------------------------------|

|-------------------------------------------------------------|
|---------------------------play-3-times----------------------|
|-------------------------------------------------------------|
|-------------------------------------------------------------|
|-4/5-5-5-5-5-5--8\7-7-7-7-7-7--4/5-5-5--8\7-7--4/5-5-5-5-5-5-|
|-2/3-3-3-3-3-3--6\5-5-5-5-5-5--2/3-3-3--6\5-5--2/3-3-3-3-3-3-|
      pm-------      pm-------      pm-             pm-------

|-------------------------------------------------------------------|
|-------------------------------------------------------------------|
|-------------------------------------------------------------------|
|-4/5-5-5-5-5-5--8\7-7-7-7-7-7--4/5-5-5--8\7-7--4/5-5-5-5-5-5--8--7-|
|-2/3-3-3-3-3-3--6\5-5-5-5-5-5--2/3-3-3--6\5-5--2/3-3-3-3-3-3--8--7-|
|--------------------------------------------------------------6--5-|
      pm-------      pm-------      pm-             pm-------

|-------------------------------------------------------------|
|-------------------------------------------------------------|
|-------------------------------------------------------------|
|-------------------------------------------------------------|
|-4/5-5-5-5-5-5--8\7-7-7-7-7-7--4/5-5-5--8\7-7--4/5-5-5-5-5-5-|
|-2/3-3-3-3-3-3--6\5-5-5-5-5-5--2/3-3-3--6\5-5--2/3-3-3-3-3-3-|
      pm-------      pm-------      pm-             pm-------

|----------------------------------------|-----------------------------------|
|----------------------------------------|-----------------------------------|
|-9--------------------------------------|-9---------------------------------|
|-9-----9-------7-------------11-------9-|-9-----9-------7------6-6-6--4-4-4-|
|-7-----9-------7------11-11--11--9-9--9-|-7-----9-------7------6-6-6--4-4-4-|
|-------7-------5-------9--9---9--7-7--7-|-------7-------5------4-4-4--2-2-2-|
                       pm---      pm-                           pm---  pm---

|----------------------------------------|-----------------------------------|
|----------------------------------------|-----------------------------------|
|-9--------------------------------------|-9---------------------------------|
|-9-----9-------7-------------11-------9-|-9-----9-------7------6-6-6--4-4-4-|
|-7-----9-------7------11-11--11--9-9--9-|-7-----9-------7------6-6-6--4-4-4-|
|-------7-------5-------9--9---9--7-7--7-|-------7-------5------4-4-4--2-2-2-|
                       pm---      pm-                           pm---  pm---

|-------------------------------------------------------------|
|---------------------------play-2-times----------------------|
|-------------------------------------------------------------|
|-------------------------------------------------------------|
|-4/5-5-5-5-5-5--8\7-7-7-7-7-7--4/5-5-5--8\7-7--4/5-5-5-5-5-5-|
|-2/3-3-3-3-3-3--6\5-5-5-5-5-5--2/3-3-3--6\5-5--2/3-3-3-3-3-3-|
      pm-------      pm-------      pm-             pm-------

|-------------------------------------------------------------------|
|-------------------------------------------------------------------|
|-------------------------------------------------------------------|
|-4/5-5-5-5-5-5--8\7-7-7-7-7-7--4/5-5-5--8\7-7--4/5-5-5-5-5-5--8--7-|
|-2/3-3-3-3-3-3--6\5-5-5-5-5-5--2/3-3-3--6\5-5--2/3-3-3-3-3-3--8--7-|
|--------------------------------------------------------------6--5-|
      pm-------      pm-------      pm-             pm-------

|-------------------------------------------------------------|
|-------------------------------------------------------------|
|-------------------------------------------------------------|
|-------------------------------------------------------------|
|-4/5-5-5-5-5-5--8\7-7-7-7-7-7--4/5-5-5--8\7-7--4/5-5-5-5-5-5-|
|-2/3-3-3-3-3-3--6\5-5-5-5-5-5--2/3-3-3--6\5-5--2/3-3-3-3-3-3-|
      pm-------      pm-------      pm-             pm-------

|----------------------------------------|-----------------------------------|
|----------------------------------------|-----------------------------------|
|-9--------------------------------------|-9---------------------------------|
|-9-----9-------7-------------11-------9-|-9-----9-------7------6-6-6--4-4-4-|
|-7-----9-------7------11-11--11--9-9--9-|-7-----9-------7------6-6-6--4-4-4-|
|-------7-------5-------9--9---9--7-7--7-|-------7-------5------4-4-4--2-2-2-|
                       pm---      pm-                           pm---  pm---

|----------------------------------------|-----------------------------------|
|----------------------------------------|-----------------------------------|
|-9--------------------------------------|-9---------------------------------|
|-9-----9-------7-------------11-------9-|-9-----9-------7------6-6-6--4-4-4-|
|-7-----9-------7------11-11--11--9-9--9-|-7-----9-------7------6-6-6--4-4-4-|
|-------7-------5-------9--9---9--7-7--7-|-------7-------5------4-4-4--2-2-2-|
                       pm---      pm-                           pm---  pm---

|---------------------------------|
|----------play-2-times-----------|
|---------------------------------|
|----------------------------8--7-|
|-4/5-5-5--7\8-8-8--4/5-5-5--8--7-|
|-2/3-3-3--5\6-6-6--2/3-3-3--6--5-|
      pm-      pm-      pm-

|----------------------------------------|-----------------------------------|
|----------------------------------------|-----------------------------------|
|-9--------------------------------------|-9---------------------------------|
|-9-----9-------7-------------11-------9-|-9-----9-------7------6-6-6--4-4-4-|
|-7-----9-------7------11-11--11--9-9--9-|-7-----9-------7------6-6-6--4-4-4-|
|-------7-------5-------9--9---9--7-7--7-|-------7-------5------4-4-4--2-2-2-|
                       pm---      pm-                           pm---  pm---

|----------------------------------------|-----------------------------------|
|----------------------------------------|-----------------------------------|
|-9--------------------------------------|-9---------------------------------|
|-9-----9-------7-------------11-------9-|-9-----9-------7------6-6-6--4-4-4-|
|-7-----9-------7------11-11--11--9-9--9-|-7-----9-------7------6-6-6--4-4-4-|
|-------7-------5-------9--9---9--7-7--7-|-------7-------5------4-4-4--2-2-2-|
                       pm---      pm-                           pm---  pm---

|---------------------------------|
|----------play-4-times-----------|
|---------------------------------|
|----------------------------8--7-|
|-4/5-5-5--7\8-8-8--4/5-5-5--8--7-|
|-2/3-3-3--5\6-6-6--2/3-3-3--6--5-|
      pm-      pm-      pm-

Scarecrow Man

intro
eb:---------------------------------|
Bb:---------------------------------|
Gb:---------------------------------|
Db:---------------------------------|    x4
Ab:-------------------------------2-|
Eb:0--7p0-7p0-0-7p0-7p0-0-7p0-7p0-0-|

verse intro
eb:----------------------------------|
Bb:----------------------------------|
Gb:----------------------------------|
Db:----------------------------------|   x2
Ab:----------------------------------|
Eb:0-3-0-3-0-3--0-3-0-3-0-3--6-6-6---|

verse
eb:----------------------------------|
Bb:----------------------------------|
Gb:----------------------------------|
Db:----------------------------------|   x4
Ab:----------------------------------|
Eb:0-3-0-3-0-3--0-3-0-3-0-3--6-6-6---|
pm ...............................

pre chorus
eb:----------------|
Bb:----------------|
Gb:7-5-4-7-5-4-----|
Db:7-5-4-7-5-4-----|
Ab:5-3-2-5-3-2-(3)-|
Eb:----------------|

chorus
eb:--------------------------------|
Bb:--------------------------------|
Gb:--------------------------------|
Db:--------------------------------|   x2
Ab:--------------------------------|
Eb:0-3-0-3-03-0-3-0-3-0-3-/7-5-3-2-|

verse
eb:----------------------------------|
Bb:----------------------------------|
Gb:----------------------------------|
Db:----------------------------------|   x4
Ab:----------------------------------|
Eb:0-3-0-3-0-3--0-3-0-3-0-3--6-6-6---|
pm ...............................

pre chorus
eb:----------------|
Bb:----------------|
Gb:7-5-4-7-5-4-----|
Db:7-5-4-7-5-4-----|
Ab:5-3-2-5-3-2-(3)-|
Eb:----------------|

chorus
eb:--------------------------------|
Bb:--------------------------------|
Gb:--------------------------------|
Db:--------------------------------|   x4
Ab:--------------------------------|
Eb:0-3-0-3-03-0-3-0-3-0-3-/7-5-3-2-|


solo start F# G
chorus
eb:--------------------------------|
Bb:--------------------------------|
Gb:--------------------------------|
Db:4--5----------------------------|
Ab:4--5----------------------------|
Eb:2--3----------------------------|

solo


|----------------------------------------------|
|---------10-12-10-----------------------------|
|-9-11-12----------12-11-12-11--12-11-9/\/\/\--|
|----------------------------------------------|
|----------------------------------------------|
|----------------------------------------------|

|--------------------------------------------------------------------------|
|10---8---7---8----10----12----15----13-----12-----------------------------|
|12^--10^-9^--10^--12^---14^---17^---15^----14^-------17/\/\/\-------------|
|--------------------------------------------------------------------------|
|--------------------------------------------------------------------------|
|--------------------------------------------------------------------------|

chorus
eb:--------------------------------|
Bb:--------------------------------|
Gb:--------------------------------|
Db:--------------------------------|   x2
Ab:--------------------------------|
Eb:0-3-0-3-03-0-3-0-3-0-3-/7-5-3-2-|

verse
eb:----------------------------------|
Bb:----------------------------------|
Gb:----------------------------------|
Db:----------------------------------|   x4
Ab:----------------------------------|
Eb:0-3-0-3-0-3--0-3-0-3-0-3--6-6-6---|
pm ...............................

pre chorus
eb:----------------|
Bb:----------------|
Gb:7-5-4-7-5-4-----|
Db:7-5-4-7-5-4-----|
Ab:5-3-2-5-3-2-(3)-|
Eb:----------------|

chorus
eb:--------------------------------|
Bb:--------------------------------|
Gb:--------------------------------|
Db:--------------------------------|   x4
Ab:--------------------------------|
Eb:0-3-0-3-03-0-3-0-3-0-3-/7-5-3-2-|

outro
eb:---------------------------------|
Bb:---------------------------------|
Gb:---------------------------------|
Db:---------------------------------|    x3
Ab:-------------------------------2-|
Eb:0--7p0-7p0-0-7p0-7p0-0-7p0-7p0-0-|

eb:---------------------------------------|
Bb:---------------------------------------|
Gb:---------------------------------------|
Db:---------------------------------------|
Ab:---------------------------------------|
Eb:0--7p0-7p0-0-7p0-7p0-0-7p0-7p0-7-5-3-2-|

Die Monster Die

|---------------------------------------------------------------------|
|---------------------------------------------------------------------|
|-------6-6-6--------7-7-7--------------------------------------------|
|-7--7--6-6-6--4--4--7-7-7--7--7-\-2-2-2-2-2-2-2-2-2-2-2-2-2-2-2-2--\-|
|-7--7--4-4-4--4--4--5-5-5--7--7-\-2-2-2-2-2-2-2-2-2-2-2-2-2-2-2-2--\-|
|-5--5---------2--2---------5--5-\-0-0-0-0-0-0-0-0-0-0-0-0-0-0-0-0--\-|
                                   pm-----------------------------

|------------------------------------------------------------------|
|-----------------------------play-2-times-------------------------|
|-------6-6-6--------7-7-7-----------------------------------------|
|-7--7--6-6-6--4--4--7-7-7--7--7-\-2-2-2-2-2-2-2-2-2-2-2-2-2-2-2-2-|
|-7--7--4-4-4--4--4--5-5-5--7--7-\-2-2-2-2-2-2-2-2-2-2-2-2-2-2-2-2-|
|-5--5---------2--2---------5--5-\-0-0-0-0-0-0-0-0-0-0-0-0-0-0-0-0-|
                                   pm-----------------------------

|---------------------------------|-----------------------------------------------|
|-----------play-3-times----------|-----------------------------------------------|
|-------------------------7-7-7-7-|-----------------------------------------------|
|-7-7-7-7-7-7-7-7-9-9-9-9-7-7-7-7-|-7-7-7-7-7-7-7-7-2-2-2-2-2-2-2-2-2-2-2-2-2-2-2-|
|-7-7-7-7-7-7-7-7-9-9-9-9-5-5-5-5-|-7-7-7-7-7-7-7-7-2-2-2-2-2-2-2-2-2-2-2-2-2-2-2-|
|-5-5-5-5-5-5-5-5-7-7-7-7---------|-5-5-5-5-5-5-5-5-0-0-0-0-0-0-0-0-0-0-0-0-0-0-0-|
                                                    pm---------------------------

|------------------------------------------------------------------|
|-----------------------------play-2-times-------------------------|
|-------6-6-6--------7-7-7-----------------------------------------|
|-7--7--6-6-6--4--4--7-7-7--7--7-\-2-2-2-2-2-2-2-2-2-2-2-2-2-2-2-2-|
|-7--7--4-4-4--4--4--5-5-5--7--7-\-2-2-2-2-2-2-2-2-2-2-2-2-2-2-2-2-|
|-5--5---------2--2---------5--5-\-0-0-0-0-0-0-0-0-0-0-0-0-0-0-0-0-|
                                   pm-----------------------------

|---------------------------------|-----------------------------------------------|
|-----------play-3-times----------|-----------------------------------------------|
|-------------------------7-7-7-7-|-----------------------------------------------|
|-7-7-7-7-7-7-7-7-9-9-9-9-7-7-7-7-|-7-7-7-7-7-7-7-7-2-2-2-2-2-2-2-2-2-2-2-2-2-2-2-|
|-7-7-7-7-7-7-7-7-9-9-9-9-5-5-5-5-|-7-7-7-7-7-7-7-7-2-2-2-2-2-2-2-2-2-2-2-2-2-2-2-|
|-5-5-5-5-5-5-5-5-7-7-7-7---------|-5-5-5-5-5-5-5-5-0-0-0-0-0-0-0-0-0-0-0-0-0-0-0-|
                                                    pm---------------------------

|-------------------------------|------------------------|
|-----------play-3-times--------|------------------------|
|-------------------------7---7-|------------------------|
|-7--7-7-7-7-7-7-7-7-7-7--7---7-|-7--7-7-7-7-7-2-2-2-2-2-|
|-7--7-7-7-7-7-7-7-7-7-7--5---5-|-7--7-7-7-7-7-2-2-2-2-2-|
|-5--5-5-5-5-5-5-5-5-5-5--------|-5--5-5-5-5-5-0-0-0-0-0-|
     pm-----------------             pm------------------

|------------------------------------------------------------------|
|-----------------------------play-2-times-------------------------|
|-------6-6-6--------7-7-7-----------------------------------------|
|-7--7--6-6-6--4--4--7-7-7--7--7-\-2-2-2-2-2-2-2-2-2-2-2-2-2-2-2-2-|
|-7--7--4-4-4--4--4--5-5-5--7--7-\-2-2-2-2-2-2-2-2-2-2-2-2-2-2-2-2-|
|-5--5---------2--2---------5--5-\-0-0-0-0-0-0-0-0-0-0-0-0-0-0-0-0-|
                                   pm-----------------------------

|---------------------------------|-----------------------------------------------|
|-----------play-3-times----------|-----------------------------------------------|
|-------------------------7-7-7-7-|-----------------------------------------------|
|-7-7-7-7-7-7-7-7-9-9-9-9-7-7-7-7-|-7-7-7-7-7-7-7-7-2-2-2-2-2-2-2-2-2-2-2-2-2-2-2-|
|-7-7-7-7-7-7-7-7-9-9-9-9-5-5-5-5-|-7-7-7-7-7-7-7-7-2-2-2-2-2-2-2-2-2-2-2-2-2-2-2-|
|-5-5-5-5-5-5-5-5-7-7-7-7---------|-5-5-5-5-5-5-5-5-0-0-0-0-0-0-0-0-0-0-0-0-0-0-0-|

|---------------------------------|-----------------------------------------------|
|-----------play-3-times----------|-----------------------------------------------|
|-------------------------7-7-7-7-|-----------------------------------------------|
|-7-7-7-7-7-7-7-7-9-9-9-9-7-7-7-7-|-7-7-7-7-7-7-7-7-2-2-2-2-2-2-2-2-2-2-2-2-2-2-2-|
|-7-7-7-7-7-7-7-7-9-9-9-9-5-5-5-5-|-7-7-7-7-7-7-7-7-2-2-2-2-2-2-2-2-2-2-2-2-2-2-2-|
|-5-5-5-5-5-5-5-5-7-7-7-7---------|-5-5-5-5-5-5-5-5-0-0-0-0-0-0-0-0-0-0-0-0-0-0-0-|

|----------|
|----------|
|----------|
|-7------7-|
|-7------7-|
|-5------5-|

Living Hell

|----------|----------------------|
|-fades in-|-----play-4-times-----|
|----------|----------------------|
|-----7----|-7-7-7-7-7-7-7--3---5-|
|-----7----|-7-7-7-7-7-7-7--3---5-|
|-----5----|-5-5-5-5-5-5-5--1---3-|

|-------------------------|---------------------------------------------------------|
|------play-8-times-------|---------------------------------------------------------|
|-------------------------|---------------------------------------------------------|
|-7-7-7-7-7-7-7-----------|-3---------7---------2-----------------------------------|
|-7-7-7-7-7-7-7-----------|-3---------7---------2---------3-3-3-3-3-3-3-3-3-3-3-3---|
|-5-5-5-5-5-5-5--1~~--3~~-|-1---------5---------0---------1-1-1-1-1-1-1-1-1-1-1-1-\-|
    pm---------

|--------------------------------------------------|
|--------------------------------------------------|
|--------------------------------------------------|
|-3---------7---------5---------5-5-5-5-5-5-5-5-5--|
|-3---------7---------5---------5-5-5-5-5-5-5-5-5--|
|-1---------5---------3---------3-3-3-3-3-3-3-3-3\-|

|-------------------------------------------|-------------------------|
|----------------play-3-times---------------|-------------------------|
|-------------------------------------------|-------------------------|
|-7-7-7-7-7-7-----------3-3-3-3-3-5-5-5-5-5-|-3---------2-------------|
|-7-7-7-7-7-7--7--5--3--3-3-3-3-3-5-5-5-5-5-|-3---------2-------------|
|-5-5-5-5-5-5-----------1-1-1-1-1-3-3-3-3-3-|-1---------0-----0---3~~-|

|----------------------|
|-----play-4-times-----|
|----------------------|
|-7-7-7-7-7-7-7--3---5-|
|-7-7-7-7-7-7-7--3---5-|
|-5-5-5-5-5-5-5--1---3-|

|-------------------------|---------------------------------------------------------|
|------play-8-times-------|---------------------------------------------------------|
|-------------------------|---------------------------------------------------------|
|-7-7-7-7-7-7-7-----------|-3---------7---------2-----------------------------------|
|-7-7-7-7-7-7-7-----------|-3---------7---------2---------3-3-3-3-3-3-3-3-3-3-3-3---|
|-5-5-5-5-5-5-5--1~~--3~~-|-1---------5---------0---------1-1-1-1-1-1-1-1-1-1-1-1-\-|
  pm---------

|--------------------------------------------------|
|--------------------------------------------------|
|--------------------------------------------------|
|-3---------7---------5---------5-5-5-5-5-5-5-5-5--|
|-3---------7---------5---------5-5-5-5-5-5-5-5-5--|
|-1---------5---------3---------3-3-3-3-3-3-3-3-3\-|

|-------------------------------------------|-------------------------|
|----------------play-3-times---------------|-------------------------|
|-------------------------------------------|-------------------------|
|-7-7-7-7-7-7-----------3-3-3-3-3-5-5-5-5-5-|-3---------2-------------|
|-7-7-7-7-7-7--7--5--3--3-3-3-3-3-5-5-5-5-5-|-3---------2-------------|
|-5-5-5-5-5-5-----------1-1-1-1-1-3-3-3-3-3-|-1---------0-----0---3~~-|

|----------------------|------------------|
|-----play-4-times-----|------------------|
|----------------------|------------------|
|-7-7-7-7-7-7-7--3---5-|-7~~--------------|
|-7-7-7-7-7-7-7--3---5-|-7~~--w/-feedback-|
|-5-5-5-5-5-5-5--1---3-|-5~~--------------|

|---------------------------------------------------------|
|---------------------------------------------------------|
|---------------------------------------------------------|
|-3---------7---------2-----------------------------------|
|-3---------7---------2---------3-3-3-3-3-3-3-3-3-3-3-3---|
|-1---------5---------0---------1-1-1-1-1-1-1-1-1-1-1-1-\-|

|--------------------------------------------------|
|--------------------------------------------------|
|--------------------------------------------------|
|-3---------7---------5---------5-5-5-5-5-5-5-5-5--|
|-3---------7---------5---------5-5-5-5-5-5-5-5-5--|
|-1---------5---------3---------3-3-3-3-3-3-3-3-3\-|

|-------------------------------------------|-------------------------|
|----------------play-3-times---------------|-------------------------|
|-------------------------------------------|-------------------------|
|-7-7-7-7-7-7-----------3-3-3-3-3-5-5-5-5-5-|-3---------2-------------|
|-7-7-7-7-7-7--7--5--3--3-3-3-3-3-5-5-5-5-5-|-3---------2-------------|
|-5-5-5-5-5-5-----------1-1-1-1-1-3-3-3-3-3-|-1---------0-----0---3~~-|

|----------------------|---|
|-----play-4-times-----|---|
|----------------------|---|
|-7-7-7-7-7-7-7--3---5-|-7-|
|-7-7-7-7-7-7-7--3---5-|-7-|
|-5-5-5-5-5-5-5--1---3-|-5-|

Descending Angel
*My Favorite Misfits Song*

intro riff

e----------------------------------------------------
B----------------------------------------------------
G----------------------------------------------------
D----------------------------------------------------
A-9-9999-1212-121212-7-7777\\44444444----------------
E-7-7777-1010-101010-5-5555\\22222222----------------

Solo

e--------------------------------------------------------------------------|
b--------------------------------------------------------------------------|
g----------------------------------------------------------12p11p9-12p11p9-|
d-4/9-9h11-12-12p11p9h11h12p11p9\7-7h9h11-9h11h12-11h12h14-----------------|
a--------------------------------------------------------------------------|
E--------------------------------------------------------------------------|

e--------------------------------------------------------------------------|
b--------------------------------------------------------------------------|
g-12p11p9-12p11p9-11vvvv---------------------------------------------------|
d------------------------9-8---9-8---9-8---9-8---7-6---7-6---7-6---7-6-----|
a----------------------------9-----9-----9-----9-----7-----7-----7-----7---|
E--------------------------------------------------------------------------|

e--------------------------------------------------------------------------|
b--------------------------------------------------------------------------|
g--------------------------------------------------------------------------|
d-5-4---5-4-----7-6---7-6---9-8---9-8---9-8\-------------------------------|
a-----5-----5-7-----7-----9-----9-----9------------------------------------|
E--------------------------------------------------------------------------|

Them

(main riff)(I am not sure if the PM's are  chords or just notes)
eb|---------------------------------------------------------------------------|
Bb|---------------------------------------------------------------------------|
Gb|---------------------------------------------------------------------------|
Db|---------------------------------------------------------------------------|
Ab|------5---8-7---5---------5---8-7---5---------5---8-7---5--3-3-3-3---------|
Eb|--0-0-3-0-6-5-0-3-----0-0-3-0-6-5-0-3-----0-0-3-0-6-5-0-3--1-1-1-1---------|
(PM) . . . . . . . .     . . . . . . . .     . . . . . . . .  

(riff 2)
eb|---------------------------------------------------------------------------|
Bb|---------------------------------------------------------------------------|
Gb|---------------------------------------------------------------------------|
Db|--7-----7-----7------------------------------------------------------------|
Ab|--5--7--5--7--5--7----5-5-5-5-5-5-5-5-5------------------------------------|
Eb|-----5-----5-----5----3-3-3-3-3-3-3-3-3------------------------------------|
(PM)                     . . . . . . . . .

(riff 2 cont.)
eb|---------------------------------------------------------------------------|
Bb|---------------------------------------------------------------------------|
Gb|---------------------------------------------------------------------------|
Db|--7-----7-----7------------------------------------------------------------|
Ab|--5--7--5--7--5--7----9-9-9-9-9-9-9-9-9---7----5---------------------------|
Eb|-----5-----5-----5----7-7-7-7-7-7-7-7-7---5----3---------------------------|
(PM)                     . . . . . . . . .

(riff 3)
eb|---------------------------------------------------------------------------|
Bb|---------------------------------------------------------------------------|
Gb|---------------------------------------------------------------------------|
Db|--9--9-9-9-9---------------------------9-8-9-8-----------------------------|
Ab|--7--7-7-7-7--9--9-9-9-9--7--7-7-7-7---7-6-7-6-----------------------------|
Eb|--------------7--7-7-7-7--5--5-5-5-5---------------------------------------|

(riff 4)
eb|---------------------------------------------------------------------------|
Bb|---------------------------------------------------------------------------|
Gb|---------------------------------------------------------------------------|
Db|--9--9-9-9-9---------------------------------------------------------------|
Ab|--7--7-7-7-7--9--9-9-9-9--7--7-7-7-7--9--9-9-9-9---------------------------|
Eb|--------------7--7-7-7-7--5--5-5-5-5--7--7-7-7-7---------------------------|

(riff 5)
eb|---------------------------------------------------------------------------|
Bb|---------------------------------------------------------------------------|
Gb|---------------------------------------------------------------------------|
Db|--9--9-9-9-9---------------------------------------------------------------|
Ab|--7--7-7-7-7--9--9-9-9-9--7--7-7-7-7--9-9-9-9--7-5-------------------------|
Eb|--------------7--7-7-7-7--5--5-5-5-5--7-7-7-7--5-3-------------------------|
(PM)                                     . . . .     


order:
main riff      4x
riff 2         1x
main riff      4x
riff 2         1x
riff 3         1x
riff 4         1x
riff 3         1x
riff 5         1x
main riff      4x
riff 3         1x
riff 4         1x        
riff 3         1x
riff 4         1x
riff 3         1x
riff 4         1x
riff 5         1x
main riff      4x

Fiend Club

(riff 1)
eb|-----|--------------------------------------------------------------------|
Bb|-----|--------------------------------------------------------------------|
Gb|-----|--------------------------------------------------------------------|
Db|-----|--------------------------------------------------------------------|
Ab|-----|--6-------------2-------------4-------------------------------------|
Eb|--2--|--4--7-4-7-4-7--0--0-0-0-0-0--2-------------------------------------|

(riff 2)
eb|--------------------------------------------------------------------------|
Bb|--------------------------------------------------------------------------|
Gb|--------------------------------------------------------------------------|
Db|--------------------------------------------------------------------------|
Ab|--------------------------------------------------------------------------|
Eb|--4--7-4-7-4-7--0--0-0-0-0-0--2-------------------------------------------|
(PM)    . . . . .     . . . . .

(riff 3)
eb|-----------------|
Bb|-----------------|
Gb|-----------------|
Db|-----------------|
Ab|--6:-------2:----|
Eb|--4:-------0:----|

(riff 4)
eb|---------------------------------------|
Bb|---------------------------------------|
Gb|---------------------------------------|
Db|-------8-8--9-9--11-11-----------------|
Ab|--9-9--6-6--7-7--9--9------------------|
Eb|--7-7----------------------------------|

(riff 5)
eb|-------------|
Bb|-------------|
Gb|-------------|
Db|--------6:---|
Ab|----2:--4:---|
Eb|----0:-------|

(riff 6)(not 100% sure on this part)
eb|-------------------------------------------------------------------------|
Bb|-------------------------------------------------------------------------|
Gb|-------------------------------------------------------------------------|
Db|-------------------------------------------------------------------------|
Ab|-------6-------------2--2-2-2-2-2--4-------------------------------------|
Eb|-------4--7-4-7-4-7--0--0-0-0-0-0--2-------------------------------------|
(PM)                        . . . . .


order:
riff 1        4x
riff 2        4x
riff 3        2x(play an E chord after this)
riff 4        3x
riff 5        1x
riff 1        2x
riff 2        4x
riff 3        2x
riff 4        3x
riff 5        1x
riff 6        4x(play an E chord after)
riff 4        3x
riff 5        1x
riff 4        3x
riff 5        2x
end on a B chord with feedback


Hunting Humans

|---|-------------------------------------------------|
|---|--------------------play-2-times-----------------|
|---|-------------------------------------------------|
|---|-2-2-2-2-2-2-2-2-2-2-2-2-4-4-4-4-4-4-4-4-4-4-4-4-|
|---|-2-2-2-2-2-2-2-2-2-2-2-2-4-4-4-4-4-4-4-4-4-4-4-4-|
|-\-|-0-0-0-0-0-0-0-0-0-0-0-0-2-2-2-2-2-2-2-2-2-2-2-2-|

|-------------------------------------------------|
|---------------------play-2-times----------------|
|-------------8-8-8-8-8-8-9-9-9-9-9-9-9-9-9-9-9-9-|
|-9-9-9-9-9-9-8-8-8-8-8-8-9-9-9-9-9-9-9-9-9-9-9-9-|
|-9-9-9-9-9-9-6-6-6-6-6-6-7-7-7-7-7-7-7-7-7-7-7-7-|
|-7-7-7-7-7-7-------------------------------------|
                                    pm-----------

|-------------------------------------------------------------------------------------------------|
|-------------------------------------------------------------------------------------------------|
|-------------------------------------------------------------------------------------------------|
|-9-9-9-9-9-9-8-8-8-8-8-8-6-6-6-6-6-6-4-4-4-4-4-4-2-2-2-2-2-2-2-2-2-2-2-2-4-4-4-4-4-4-4-4-4-4-4-4-|
|-9-9-9-9-9-9-8-8-8-8-8-8-6-6-6-6-6-6-4-4-4-4-4-4-2-2-2-2-2-2-2-2-2-2-2-2-4-4-4-4-4-4-4-4-4-4-4-4-|
|-7-7-7-7-7-7-6-6-6-6-6-6-4-4-4-4-4-4-2-2-2-2-2-2-0-0-0-0-0-0-0-0-0-0-0-0-2-2-2-2-2-2-2-2-2-2-2-2-|

|-------------------------------------------------|
|---------------------play-2-times----------------|
|-------------8-8-8-8-8-8-9-9-9-9-9-9-9-9-9-9-9-9-|
|-9-9-9-9-9-9-8-8-8-8-8-8-9-9-9-9-9-9-9-9-9-9-9-9-|
|-9-9-9-9-9-9-6-6-6-6-6-6-7-7-7-7-7-7-7-7-7-7-7-7-|
|-7-7-7-7-7-7-------------------------------------|
                                    pm-----------

|-------------------------------------------------------------------------------------------------|
|-------------------------------------------------------------------------------------------------|
|-------------------------------------------------------------------------------------------------|
|-9-9-9-9-9-9-8-8-8-8-8-8-6-6-6-6-6-6-4-4-4-4-4-4-2-2-2-2-2-2-2-2-2-2-2-2-4-4-4-4-4-4-4-4-4-4-4-4-|
|-9-9-9-9-9-9-8-8-8-8-8-8-6-6-6-6-6-6-4-4-4-4-4-4-2-2-2-2-2-2-2-2-2-2-2-2-4-4-4-4-4-4-4-4-4-4-4-4-|
|-7-7-7-7-7-7-6-6-6-6-6-6-4-4-4-4-4-4-2-2-2-2-2-2-0-0-0-0-0-0-0-0-0-0-0-0-2-2-2-2-2-2-2-2-2-2-2-2-|

|-------------------------------------------------|
|-------------------------------------------------|
|-------------------------------------------------|
|-2-2-2-2-2-2-2-2-2-2-2-2-4-4-4-4-4-4-4-4-4-4-4-4-|
|-2-2-2-2-2-2-2-2-2-2-2-2-4-4-4-4-4-4-4-4-4-4-4-4-|
|-0-0-0-0-0-0-0-0-0-0-0-0-2-2-2-2-2-2-2-2-2-2-2-2-|

|-------------------------------------------------|--------------------------------------|
|-------------------play-3-times------------------|--------------------------------------|
|-4-4-4-4-4-4-4-4-4-4-4-4-------------------------|-4-4-4-4-4-4-4-4-4-4-4-4--------------|
|-4-4-4-4-4-4-4-4-4-4-4-4-2-2-2-2-2-2-4-4-4-4-4-4-|-4-4-4-4-4-4-4-4-4-4-4-4---2--------4-|
|-2-2-2-2-2-2-2-2-2-2-2-2-2-2-2-2-2-2-4-4-4-4-4-4-|-2-2-2-2-2-2-2-2-2-2-2-2---2--------4-|
|-------------------------0-0-0-0-0-0-2-2-2-2-2-2-|---------------------------0--------2-|

|-------------------------------------------------|
|-------------------------------------------------|
|-4-4-4-4-4-4-4-4-4-4-4-4-------------------------|
|-4-4-4-4-4-4-4-4-4-4-4-4-4-4-4-4-4-4-4-4-4-4-4-4-|
|-2-2-2-2-2-2-2-2-2-2-2-2-4-4-4-4-4-4-4-4-4-4-4-4-|
|-------------------------2-2-2-2-2-2-2-2-2-2-2-2-|
                          pm---------------------

|-------------------------------------------------|
|---------------------play-2-times----------------|
|-------------8-8-8-8-8-8-9-9-9-9-9-9-9-9-9-9-9-9-|
|-9-9-9-9-9-9-8-8-8-8-8-8-9-9-9-9-9-9-9-9-9-9-9-9-|
|-9-9-9-9-9-9-6-6-6-6-6-6-7-7-7-7-7-7-7-7-7-7-7-7-|
|-7-7-7-7-7-7-------------------------------------|
                                    pm-----------

|-------------------------------------------------------------------------------------------------|
|-------------------------------------------------------------------------------------------------|
|-------------------------------------------------------------------------------------------------|
|-9-9-9-9-9-9-8-8-8-8-8-8-6-6-6-6-6-6-4-4-4-4-4-4-2-2-2-2-2-2-2-2-2-2-2-2-4-4-4-4-4-4-4-4-4-4-4-4-|
|-9-9-9-9-9-9-8-8-8-8-8-8-6-6-6-6-6-6-4-4-4-4-4-4-2-2-2-2-2-2-2-2-2-2-2-2-4-4-4-4-4-4-4-4-4-4-4-4-|
|-7-7-7-7-7-7-6-6-6-6-6-6-4-4-4-4-4-4-2-2-2-2-2-2-0-0-0-0-0-0-0-0-0-0-0-0-2-2-2-2-2-2-2-2-2-2-2-2-|

|-------------------------------------------------|
|-------------------------------------------------|
|-------------------------------------------------|
|-2-2-2-2-2-2-2-2-2-2-2-2-4-4-4-4-4-4-4-4-4-4-4-4-|
|-2-2-2-2-2-2-2-2-2-2-2-2-4-4-4-4-4-4-4-4-4-4-4-4-|
|-0-0-0-0-0-0-0-0-0-0-0-0-2-2-2-2-2-2-2-2-2-2-2-2-|

|-------------------------------------------------|--------------------------------------|
|-------------------play-3-times------------------|--------------play-2-times------------|
|-4-4-4-4-4-4-4-4-4-4-4-4-------------------------|-4-4-4-4-4-4-4-4-4-4-4-4--------------|
|-4-4-4-4-4-4-4-4-4-4-4-4-2-2-2-2-2-2-4-4-4-4-4-4-|-4-4-4-4-4-4-4-4-4-4-4-4---2--------4-|
|-2-2-2-2-2-2-2-2-2-2-2-2-2-2-2-2-2-2-4-4-4-4-4-4-|-2-2-2-2-2-2-2-2-2-2-2-2---2--------4-|
|-------------------------0-0-0-0-0-0-2-2-2-2-2-2-|---------------------------0--------2-|

|-------------------------------------------------|---|
|-------------------------------------------------|---|
|-4-4-4-4-4-4-4-4-4-4-4-4-------------------------|-4-|
|-4-4-4-4-4-4-4-4-4-4-4-4-2-2-2-2-2-2-4-4-4-4-4-4-|-4-|
|-2-2-2-2-2-2-2-2-2-2-2-2-2-2-2-2-2-2-4-4-4-4-4-4-|-2-|
|-------------------------0-0-0-0-0-0-2-2-2-2-2-2-|---|

Helena

part 1)
eb|---------------------------------------------------------------------------|
Bb|---------------------------------------------------------------------------|
Gb|---------------------------------------------------------------------------|
Db|--------4-----------------4------------------------------------------------|
Ab|--6-----2-----4-----6-----2-----4----2-4-5---------------------------------|
Eb|--4-----------2-----4-----------2----0-2-3---------------------------------|

(part 2)
eb|---------------------------------------------------------------------------|
Bb|---------------------------------------------------------------------------|
Gb|---------------------------------------------------------------------------|
Db|--------4------------------------------------------------------------------|
Ab|--6-----2-----4-----2-4-5--------------------------------------------------|
Eb|--4-----------2-----0-2-3--------------------------------------------------|

(part 3a)
eb|---------------------------------------------------------------------------|
Bb|---------------------------------------------------------------------------|
Gb|---------------------------------------------------------------------------|
Db|------------4--------------------------------------------------------------|
Ab|--6---------2---------4-----------2-4-5------------------------------------|
Eb|--4-4-4-------2-2-----2-2-2-2-----0-2-3------------------------------------|
(PM)   . .       . .       . . .

(part 3b)
eb|---------------------------------------------------------------------------|
Bb|---------------------------------------------------------------------------|
Gb|---------------------------------------------------------------------------|
Db|------------4--------------------------------------------------------------|
Ab|--6---------2-----------4:-------------------------------------------------|
Eb|--4-4-4-4-----2-2-2-----2:-------------------------------------------------|
(PM)   . . .     . . .

(part 4)
eb|---------------------------------------------------------------------------|
Bb|---------------------------------------------------------------------------|
Gb|---------------------------------------------------------------------------|
Db|-9-9-9-10-10-10-7-7-7-9-9-9-5-5-5-7-7-7-4-4-4-5-5-5-2-2-2-4-4-4------------|
Ab|-7-7-7-8--8--8--5-5-5-7-7-7-3-3-3-5-5-5-2-2-2-3-3-3-0-0-0-2-2-2-5-5-5-7-7-7|
Eb|----------------------------------------------------------------3-3-3-5-5-5|

(part 5)
eb|---------------------------------------------------------------------------|
Bb|---------------------------------------------------------------------------|
Gb|---------------------------------------------------------------------------|
Db|---------------------------------------------------------------------------|
Ab|-----------------------------------------------------10-10-10---10-9-------|
Eb|--7-0-8-0-10-0-8-0-7-0-5-0-7(AH~)-----7-0-8-0-10-0-8-8--8--8----8--7-------|
(PM)   .   .    .   .   .   .              .   .    .                          

(part 6)
eb|---------------------------------------------------------------------------|
Bb|---------------------------------------------------------------------------|
Gb|---------------------------------------------------------------------------|
Db|--9-9-9-9-9-9-9-9-9-9-9-9-7-7-7-7-7-7-7-7-7-7-7-7--------------------------|
Ab|--7-7-7-7-7-7-7-7-7-7-7-7-5-5-5-5-5-5-5-5-5-5-5-5--------------------------|
Eb|---------------------------------------------------------------------------|

(part7)
eb|---------------------------------------------------------------------------|
Bb|---------------------------------------------------------------------------|
Gb|---------------------------------------------------------------------------|
Db|--9--------------12\11--9--7--------------7--5/7---------------------------|
Ab|--7-7-7-7-7-7-7--10\9---7--5-5-5-5-5-5-5--5--3/5---------------------------|
Eb|---------------------------------------------------------------------------|
(PM)   . . . . . .              . . . . . .

(part 8)
eb|---------------------------------------------------------------------------|
Bb|---------------------------------------------------------------------------|
Gb|---------------------------------------------------------------------------|
Db|--4-----------4-------5----------5----------4-----------4------------------|
Ab|--2--2-2-2-2--2--5/7--3-3-3-3-3--3--\--5/7--2--2-2-2-2--2--5-5-7-7----4:---|
Eb|-----------------3/5----------------\--3/5-----------------3-3-5-5----2:---|
(PM)    . . . .            . . . .                . . . .     . . . .

Order:
part 1        1x
part 2        9x
part 3a       3x 
part 3b       1x
part 4        2x
part 5        2x
part 6        2x
part 7        2x
part 5        2x
part 6        2x
part 7        2x
part 4        4x
part 8        1x
part 1        1x
part 3a       8x
part 3b       1x

Kong Unleashed

E---------------------------------------------
B---------------------------------------------
G--------------------------------------------- Repeat A Bunch
D---------------------------------------------
A----7-6------------7-6-7-6-7-6-7-6-7-6-------
E-4-------7-6---4-----------------------4-----



There You Guys Go The Whole Misfits Famous Monsters CD

                                   -Rock On, Iowa


comments
We did not receive enough feedback on this tab! Please rate:
print report bad tab
1 2 3 4 5
2 comments total.
0 reply
linghoejohnson9 wrote on November 1 2008, 04:33 pm

This is a better tab for Saturday Night:

Tabbed By: Astrozombie138

(riff 1)
eb|---------------------------------------------------------------------------|
Bb|---------------------------------------------------------------------------|
Gb|---------------------------------------------------------------------------|
Db|----7--7:--7-7--x--4--4:--4-4-x--------------------------------------------|
Ab|--7-5--5:--5-5--x--2--2:--2-2-x--5--5:--5-5--x--7--7:--7-7-7-7-7-----------|
Eb|--5------------------------------3--3:--3-3--x--5--5:--5-5-5-5-5-----------|
(PM) . . . . .

(solo 1)
eb|---------------------------------------------------------------------------|
Bb|---------------------------------------------------------------------------|
Gb|---------------------------------------------------------------------------|
Db|---------------------------------------------------------------------------|
Ab|--5~--7--9--7--5--7--9\5~--5--7--9\5~--7--5--4--5--7--5~(feedback)---------|
Eb|---------------------------------------------------------------------------|

(riff 2)(play the A chord the second time only)
eb|---------------------------------------------------------------------------|
Bb|---------------------------------------------------------------------------|
Gb|---------------------------------------------------------------------------|
Db|--7-7-7-7-7-7-7-7-7-7-7--4-4-4-4-4-4-4-4-4-4-4-----------------------------|
Ab|--5-5-5-5-5-5-5-5-5-5-5--2-2-2-2-2-2-2-2-2-2-2--5-5-5-5-5-5-5-5-5-5-5------|
Eb|------------------------------------------------3-3-3-3-3-3-3-3-3-3-3------|
(PM) . . . . . . . . . . . . . . . . . . . . . . . . . .

(riff 2 cont.)
eb|---------------------------------------------------------------------------|
Bb|---------------------------------------------------------------------------|
Gb|---------------------------------------------------------------------------|
Db|---------------------------------------------------------------------------|(2x)
Ab|--7-7-7-7-7-7-7-7-7-7-7-7--------------------------------------------------|
Eb|--5-5-5-5-5-5-5-5-5-5-5-5--------------------------------------------------|
(PM) . . . . . . .

(riff 3)
eb|---------------------------------------------------------------------------|
Bb|---------------------------------------------------------------------------|
Gb|---------------------------------------------------------------------------|
Db|--7--7:--7-7-----4--4---4-4------------------------------------------------|
Ab|--5--5:--5-5-----2--2:--2-2--5-5-5-5-5-5-5-5-5-5-5-7-7-7-7-7-7-7-7-7-7-7---|
Eb|-----------------------------3-3-3-3-3-3-3-3-3-3-3-5-5-5-5-5-5-5-5-5-5-5---|
(PM) . . . . . . . . . . . . . . . . . . . . . .

(riff 4)
eb|---------------------------------------------------------------------------|
Bb|---------------------------------------------------------------------------|
Gb|---------------------------------------------------------------------------|
Db|----------7:--7-7-7-7-7-7-7-7-7-7-7----------------------------------------|(2x)
Ab|--5:--7:--5:--5-5-5-5-5-5-5-5-5-5-5----------------------------------------|
Eb|--3:--5:-------------------------------------------------------------------|
(PM) . . . . . . . . .

(riff 5)
eb|---------------------------------------------------------------------------|
Bb|---------------------------------------------------------------------------|
Gb|---------------------------------------------------------------------------|
Db|---------------------------------------------------------------------------|
Ab|--5:--7:---\--4-4-4-4-4-4--5-5-5-5-5-5--5:--7:-----------------------------|
Eb|--3:--5:---\--2-2-2-2-2-2--3-3-3-3-3-3--3:--5:-----------------------------|
(PM) . . . . . . . . . . . .

(riff 6)
eb|---------------------------------------------------------------------------|
Bb|---------------------------------------------------------------------------|
Gb|---------------------------------------------------------------------------|
Db|--7-7:--7-7-7--4-4:--4-4-4--------------------7-7:--7-7-7------------------|(2x)
Ab|--5-5:--5-5-5--2-2:--2-2-2--5-5-5-5--7-7-7-7--5-5:--5-5-5------------------|
Eb|----------------------------3-3-3-3--5-5-5-5-------------------------------|

(solo 2)
eb|---------------------------------------------------------------------------|
Bb|---------------------------------------------------------------------------|
Gb|---------------------------------------------------------------------------|
Db|---------------------------------------------------------------------------|
Ab|--5~--7--9--7--5--7--9\5~--5--7--9\5~--7--5--4--5--7--7--------------------|
Eb|---------------------------------------------------------------------------|

(riff 7)
eb|---------------------------------------------------------------------------|
Bb|---------------------------------------------------------------------------|
Gb|-

0 reply
linghoejohnson9 wrote on November 1 2008, 04:35 pm

Gb|---------------------------------------------------------------------------|
Db|---------------------------------------------------------------------------|
Ab|--7:-7:--9:--9:------------------------------------------------------------|
Eb|--5:-5:--7:--7:--/-\-------------------------------------------------------|

(riff 8)
eb|---------------------------------------------------------------------------|
Bb|---------------------------------------------------------------------------|
Gb|---------------------------------------------------------------------------|
Db|----------9:--\------------------------------------------------------------|(2x)
Ab|--7:--9:--7:--\2-2-2-2-2-2-------------------------------------------------|
Eb|--5:--7:-------0-0-0-0-0-0-------------------------------------------------|
(PM) . . . . . .

(riff 9)
eb|---------------------------------------------------------------------------|
Bb|---------------------------------------------------------------------------|
Gb|---------------------------------------------------------------------------|
Db|---------------------------------------------------------------------------|
Ab|--7:--9:--\6-6-6-6-6-6--7-7-7-7-7-7--7:--9:--------------------------------|
Eb|--5:--7:--\4-4-4-4-4-4--5-5-5-5-5-5--5:--7:--------------------------------|

(riff 10)
eb|---------------------------------------------------------------------------|
Bb|---------------------------------------------------------------------------|
Gb|---------------------------------------------------------------------------|
Db|--9--9-9--9-9-9-9-9-9-9--6--6-6--6-6-6-6-6-6-6-----------------------------|
Ab|--7--7-7--7-7-7-7-7-7-7--4--4-4--4-4-4-4-4-4-4--7--7-7-7-7--9--9-9-9-9-----|
Eb|------------------------------------------------5--5-5-5-5--7--7-7-7-7-----|

(riff 10 cont.)
eb|---------------------------------------------------------------------------|
Bb|---------------------------------------------------------------------------|
Gb|---------------------------------------------------------------------------|
Db|--9--9-9--9-9-9-9-9-9-9--9--9-9--9-9-9-9-9-9-9--6--6-6--6-6-6-6-6-6-6------|
Ab|--7--7-7--7-7-7-7-7-7-7--7--7-7--7-7-7-7-7-7-7--4--4-4--4-4-4-4-4-4-4------|
Eb|---------------------------------------------------------------------------|

(riff 10 cont.)
eb|---------------------------------------------------------------------------|
Bb|---------------------------------------------------------------------------|
Gb|---------------------------------------------------------------------------|
Db|---------------------------------------------------------------------------|
Ab|--7--7-7-7-7--9--9-9-9-9---------------------------------------------------|
Eb|--5--5-5-5-5--7--7-7-7-7---------------------------------------------------|

(riff 11)
eb|---------------------------------------------------------------------------|
Bb|---------------------------------------------------------------------------|
Gb|---------------------------------------------------------------------------|
Db|----------6--6--6--6----------------------------------9--9-9-9-------------|
Ab|--7~--6~--4--4--4--4--4~--2~--7--7-7-7-7--9--9-9-9-9--7--7-7-7--7~--6~-----|
Eb|------------------------------5--5-5-5-5--7--7-7-7-7-----------------------|

(riff 11 cont.)
eb|---------------------------------------------------------------------------|
Bb|---------------------------------------------------------------------------|
Gb|---------------------------------------------------------------------------|
Db|--6--6--6--6-------------------------------------2-------------------------|
Ab|--4--4--4--4--4~--2~--7:::--9:::--2::::----------2-------------------------|
Eb|----------------------5:::--7:::--0::::----------0-------------------------|


| : Let ring
| PM Palm mute
| / slide up
| \ slide down
| h hammer-on
| p pull-off
| ~ vibrato
| + harmonic
| x Mute note

I want to post or [tab]
guest
You may want to rate the tab now too:
select rating
Please do not post tabs as comments. Select "correction" instead!