Oops, an error
Loading. Please wait.

Famous Monsters Tab

ver3
ver3

Album

More versions @911Tabs.com
329 views 18 this week
no commentswrite comment
1 2 3 4 5
excellent!
x 1
add to favorites launch autoscroll
font size
0
reset
Autoscroll
+/-
esc
set tempo
stop
Contributor
Difficulty
Tuning
intermediate
D# G# C# F# A# D#
WARNING: You are trying to view
                                    content from Ultimate-Guitar.com
                                    in an unauthorized application,
                                    which is prohibited.

                                    Please use an official Ultimate
                                    Guitar Tabs application for iPhone,
                                    iPad or Android to access legitimate
                                    chords, guitar, bass, and drum tabs
                                    from Ultimate-Guitar.com database.

                                    Type "ultimate guitar tabs" in Apple
                                    App Store's or Android Market's
                                    search to find the application.
Album:Famous Monsters
Artist:The Misfits
Genre:Horror Punk
Year:1999
Tuning:Half-Step Down (Eb,Ab,Db,Gb,Bb,Eb)For All Songs.



Track 1:Kong At The Gates

Intro Pt.1 x2
Eb------------------------------------------------------|
Bb------------------------------------------------------|
Gb-2~~~--5-4~~~--5-4-2~~~---5--4-5--4-5--4-5---4-5-4-5--|
Db-2~~~--5-4~~~--5-4-2~~~---5--4-5--4-5--4-5---4-5-4-5--|
Ab-0~~~--3-2~~~--3-2-0~~~---3--2-3--2-3--2-3---2-3-2-3--|
Eb------------------------------------------------------|

Intro Pt.2
Eb-----------------------------------------------------------|
Bb-----------------------------------------------------------|
Gb-2~~~--10-9~~~--5-4-2~~~--10--9-10--9-10--9-10--9-10-9-10--|
Db-2~~~--10-9~~~--5-4-2~~~--10--9-10--9-10--9-10--9-10-9-10--|
Ab-0~~~---8-7~~~--3-2-0~~~---8--7--8--7--8--7--8--7--8-7--8--|
Eb-----------------------------------------------------------|

Intro Pt.3
Eb------------------------------------------------------|
Bb------------------------------------------------------|
Gb-2~~~--5-4~~~--5-4-2~~~---5--4-5--4-5--4-5---4-5-4-5--|
Db-2~~~--5-4~~~--5-4-2~~~---5--4-5--4-5--4-5---4-5-4-5--|
Ab-0~~~--3-2~~~--3-2-0~~~---3--2-3--2-3--2-3---2-3-2-3--|
Eb------------------------------------------------------|

Intro Pt.4
Eb---------------------------------------------------------|
Bb---------------------------------------------------------|
Gb-2~~~--5-4~~~--5-4-2~~~--5--4-5--4-5--4-5---44-5--2~~~~--|
Db-2~~~--5-4~~~--5-4-2~~~--5--4-5--4-5--4-5---44-5--2~~~~--|
Ab-0~~~--3-2~~~--3-2-0~~~--3--2-3--2-3--2-3---22-3--0~~~~--|
Eb---------------------------------------------------------|

Song Order:
*Intro Pt.1 x2
*Intro Pt.2 x1
*Intro Pt.3 x1
*Intro Pt.4 x1



Track 2:The Forbidden Zone

Intro
Eb-------------------------------|
Bb-------------------------------|
Gb-5----5-4-2----2---------------|
Db-5x8--5-4-2x8--2-5-3----3/4-5--|
Ab-3----3-2-0----0-5-3x8--3/4-5--|
Eb-----------------3-1----1/2-3--|

Verse 1
Eb-------------------------------|
Bb-------------------------------|
Gb-5-----------------------------|
Db-5x8--7----33333333--55555555--|
Ab-3----7x8--33333333--55555555--|
Eb------5----11111111--33333333--|

Pre-Chorus 1
Eb--------------------------------------------|
Bb--------------------------------------------|
Gb--------------------------------------------|
Db-3----55555555--5-4-3--3--------------------|
Ab-3x8--55555555--5-4-3--3x8------------------|
Eb-1----33333333--3-2-1--1----3~--2~--5~--4~--|

Chorus 1
Eb-----------------------|
Bb-----------------------|
Gb-77777777--------------|
Db-77777777--5555--7777--|
Ab-55555555--5555--7777--|
Eb-----------3333--5555--|

Post-Chorus 1
Eb-------------|
Bb-------------|
Gb-------------|
Db-5----7-7----|
Ab-5x8--7-7x7--|
Eb-3----5-5----|
   .

Chorus 2
Eb--------------------------------------|
Bb--------------------------------------|
Gb-7----7-6-4----4-2-55555555-----------|
Db-7x8--7-6-4x8--4-2-55555555------7----|
Ab-5----5-4-2----2-0-33333333------7x8--|
Eb-----------------------------3/4-5----|

Song Order:
*Intro
*Verse 1 x3
*Pre-Chorus 1 x1
*Chorus 1 x3
*Post-Chorus 1 x1
*Chorus 2 x1
*Verse 2 x3
*Pre-Chorus 2 x1
*Chorus 1 x3
*Post-Chorus 2 x1
*Chorus 2 x1
*Post-Chorus 3 x1
*Chorus 2 x1



Track 3:Lost In Space

Intro x1
Eb--------------------|
Bb--------------------|
Gb--------------------|
Db-3*--2*--0*---------|
Ab-------------3-2-0--|
Eb--------------------|

Pre-Verse 1 Pt.1 x3
Eb-----------------|
Bb-----------------|
Gb-------3---------|
Db-5-----3x5--3----|
Ab-5x10--1----3x5--|
Eb-3----------1----|

Pre-Verse 1 Pt.2
Eb-------------|
Bb-------------|
Gb-------------|
Db-5-55-5-5~~--|
Ab-5-55-5-5~~--|
Eb-3-33-3-3~~--|

Pre-Verse 1 Pt.3 x1
Eb--------------------|
Bb--------------------|
Gb--------------------|
Db-3*--2*--0*---------|
Ab-------------3-2-0--|
Eb--------------------|

Verse 1 Pt.1 x3
Eb-----------------|
Bb-----------------|
Gb-------3---------|
Db-5-----3x5--3----|
Ab-5x10--1----3x5--|
Eb-3----------1----|

Verse 1 Pt.2 x1
Eb------------------|
Bb------------------|
Gb-------3----------|
Db-5-----3x5--3~~~--|
Ab-5x10--1----3~~~--|
Eb-3----------1~~~--|

Then:
*Verse 1 Pt.1 x3
*Verse 1 Pt.2 x1

Chorus 1 x3
Eb---------------------|
Bb---------------------|
Gb-8-------------------|
Db-8x5--8----5----8----|
Ab-6----8x5--5x5--8x5--|
Eb------6----3----6----|

Post-Chorus 1 x1
Eb-------------|
Bb-------------|
Gb-8-----------|
Db-8x5--88888--|
Ab-6----88888--|
Eb------66666--|

Then:
*Verse 2 Pt.1
*Verse 2 Pt.2
*Chorus 2 x3
*Post-Chorus 2 x1

Bridge Pt.1
Eb-------------------------------------------------|
Bb-------------------------------------------------|
Gb-------------------------------------------------|
Db-2~~---------------2~~----------------------2~~--|
Ab-2~~------0-1-0----2~~--/7~~~-------0-1-0---2~~--|
Eb-0~~--0-3-------3--0~~----------0-3-------3-0~~--|

Bridge Pt.2
Eb----------------------------------------|
Bb----------------------------------------|
Gb----------------------------------------|
Db-------------2~~------------------------|
Ab-----0-1-0---2~~--/7~~~--------0-1-0----|
Eb-0-3-------3-0~~-----------0-3-------3--|

Chorus 3 x3
Eb---------------------|
Bb---------------------|
Gb-8-------------------|
Db-8x5--8----5----8----|
Ab-6----8x5--5x5--8x5--|
Eb------6----3----6----|

Post-Chorus 3
Eb---------------|
Bb---------------|
Gb-88888---------|
Db-88888--88888--|
Ab-66666--88888--|
Eb--------66666--|

Pre-Chorus 1
Eb-------|
Bb-------|
Gb-------|
Db-5~~~--
Ab-5~~~--
Eb-3~~~--

Then:
*Chorus 4 x3
*Post-Chorus 4

Outro Pt.1 x3
Eb--------------------|
Bb--------------------|
Gb-------3-3-3--------|
Db-5~~~--3-3-3-3-3-3--|
Ab-5~~~--1-1-1-3-3-3--|
Eb-3~~~--------1-1-1--|

Outro Pt.2
Eb----------|
Bb----------|
Gb----------|
Db-5~~~~~~--
Ab-5~~~~~~--
Eb-3~~~~~~--

Song Order:
*Intro x1
*Pre-Verse 1 Pt.1 x3
*Pre-Verse 1 Pt.2
*Pre-Verse 1 Pt.3 x1
*Verse 1 Pt.1 x3
*Verse 1 Pt.2 x1
*Verse 1 Pt.1 x3
*Verse 1 Pt.2 x1
*Chorus 1 x3
*Post-Chorus 1 x1
*Verse 2 Pt.1
*Verse 2 Pt.2
*Chorus 2 x3
*Post-Chorus 2 x1
*Bridge Pt.1
*Bridge Pt.2
*Chorus 3 x3
*Post-Chorus 3
*Pre-Chorus 1
*Chorus 4 x3
*Post-Chorus 4
*Outro Pt.1 x3
*Outro Pt.2



Track 4:Dust To Dust

Intro x4
Eb--------------------|
Bb--------------------|
Gb-4------------------|
Db-4-2-5~~--55--7-5-7-|
Ab-2-2-5~~--55--7-5-7-|
Eb---0-3~~--33--5-3-5-|

Verse 1 x8
Eb---------------------|
Bb---------------------|
Gb-4-------------------|
Db-4-2-5~~--55--7-5-7--|
Ab-2-2-5~~--55--7-5-7--|
Eb---0-3~~--33--5-3-5--|

Chorus 1 x4
Eb----------------------|
Bb----------------------|
Gb-7--------------------|
Db-7x16--55555555--2----|
Ab-5-----55555555--2x8--|
Eb-------33333333--0----|

Post-Chorus 1 x4
Eb---------------------|
Bb---------------------|
Gb-4-------------------|
Db-4-2-5~~--55--7-5-7--|
Ab-2-2-5~~--55--7-5-7--|
Eb---0-3~~--33--5-3-5--|

Verse 2 x4
Eb----------------------------|
Bb----------------------------|
Gb-444------------------------|
Db-444--222--55555-55--7-5-7--|
Ab-222--222--55555-55--7-5-7--|
Eb-...--000--33333-33--5-3-5--|
        ...  ..... ..

Pre-Chorus 1 x4
Eb---------------------|
Bb---------------------|
Gb-4-------------------|
Db-4-2-5~~--55--7-5-7--|
Ab-2-2-5~~--55--7-5-7--|
Eb---0-3~~--33--5-3-5--|

Chorus 2 x4
Eb-----------------------------|
Bb-----------------------------|
Gb-7777777777777777------------|
Db-7777777777777777--5----2----|
Ab-5555555555555555--5x8--2x8--|
Eb-------------------3----0----|

Bridge
Eb-------------------------------------|
Bb-------------------------------------|
Gb-------------------------------------|
Db-4~~~~~~--5~~~~~~--6~~~~~~--7~~~~~~--|
Ab-------------------------------------|
Eb-------------------------------------|

Chorus 3x4
Eb---------------------------|
Bb---------------------------|
Gb-7-------------------------|
Db-7x16--55555555--22222222--|
Ab-5-----55555555--22222222--|
Eb-------33333333--00000000--|

Outro Pt.1 x3
Eb---------------------|
Bb---------------------|
Gb-4-------------------|
Db-4-2-5~~--55--7-5-7--|
Ab-2-2-5~~--55--7-5-7--|
Eb---0-3~~--33--5-3-5--|

Outro Pt.2
Eb-------------|
Bb-------------|
Gb-4-----------|
Db-4-2-5~~~~~--|
Ab-2-2-5~~~~~--|
Eb---0-3~~~~~--|

Song Order:
*Intro x4
*Verse 1 x4
*Chorus 1 x4
*Post-Chorus 1 x4
*Verse 2 x4
*Pre-Chorus 1 x4
*Chorus 2 x4
*Bridge x1
*Chorus 3 x4
*Outro Pt.1
*Outro Pt.2



Track 5:Crawling Eye

Intro Pt.1
Eb--------------------------|
Bb--------------------------|
Gb-------88-77--------------|
Db-55-77-88-77--55-77-8-10--|
Ab-55-77-66-55--55-77-8-10--|
Eb-33-55--------33-55-6--8--|
      ..           ..

Intro Pt.2
Eb--------------------------|
Bb--------------------------|
Gb-------88-77--------------|
Db-55-77-88-77--888-101010--|
Ab-55-77-66-55--888-101010--|
Eb-33-55--------666--8-8-8--|
      ..

Then:
*Intro Pt.1
*Intro Pt.2

Verse 1 x3
Eb-----------------------------|
Bb-----------------------------|
Gb-4-4-----------7-7-----------|
Db-4-4x5--5-5----7-7x5--7-7----|
Ab-2-2----5-5x5--5-5----7-7x5--|
Eb--------3-3-----------5-5----|

Pre-Chorus 1
Eb---------------|
Bb---------------|
Gb---------------|
Db-5-5-----7-----|
Ab-5-5x14--7x16--|
Eb-3-3-----5-----|
           .

Chorus 1 Pt.1
Eb------------------------------------------------|
Bb------------------------------------------------|
Gb-4-4----------------4-4---------7---------------|
Db-4-4x6--5-55-7-77---4-4x6--5-55-7---5-5----7----|
Ab-2-2----5-55-7-77---2-2----5-55-5---5-5x6--7x8--|
Eb--------3-33-5-55----------3-33-----3-3----5----|

Chorus 1 Pt.2
Eb-------------------------------------------------|
Bb-------------------------------------------------|
Gb-4-4----------------4-4---------7----------------|
Db-4-4x6--5-55-7-77---4-4x6--5-55-7---5-5----7-----|
Ab-2-2----5-55-7-77---2-2----5-55-5---5-5x6--7x16--|
Eb--------3-33-5-55----------3-33-----3-3----5-----|
                                             .

Post-Chorus 1 x2
Eb------------------|
Bb------------------|
Gb-7----6666-55-22--|
Db-7x8--6666-55-22--|
Ab-5----4444-33-00--|
Eb-.----------------|

Pre-Verse 1 x2
Eb--------------------------------------------------------|
Bb--------------------------------------------------------|
Gb-------88-77-------------------------88-77--------------|
Db-55-77-88-77---55-77-88-1010---55-77-88-77--888-101010--|
Ab-55-77-66-55---55-77-88-1010---55-77-66-55--888-101010--|
Eb-33-55---------33-55-66--8-8---33-55--------666--8-8-8--|
      ..            ..              ..

Then:
*Verse 2 x3
*Pre-Chorus 2
*Chorus 2 Pt.1
*Chorus 2 Pt.2
*Post-Chorus 2 x2

Outro
Eb---------------------------------------------------------------|
Bb---------------------------------------------------------------|
Gb-------88-77-----------------------88-77-----------------------|
Db-55-77-88-77--55-77-88-1010--55-77-88-77--888-101010---5`~~~~--|
Ab-55-77-66-55--55-77-88-1010--55-77-66-55--888-101010---5~~~~~--|
Eb-33-55--------33-55-66--8-8--33-55--------666--8-8-8---3~~~~~--|
      ..           ..             ..

Song Order:
*Intro Pt.1 x1
*Intro Pt.2 x1
*Intro Pt.1 x1
*Intro Pt.2 x1
*Verse 1 x3
*Pre-Chorus 1 x1
*Chorus 1 Pt.1 x1
*Chorus 1 Pt.2 x1
*Post-Chorus 1 x2
*Pre-Verse 1 x2
*Verse 2 x3
*Pre-Chorus 2 x1
*Chorus 2 Pt.1 x1
*Chorus 2 Pt.2 x1
*Post-Chorus 2 x2
*Outro x1



Track 6:Witch Hunt

Intro 1 x2
Eb---------------------------|
Bb---------------------------|
Gb---------------------------|
Db-7----8----8888--10101010--|
Ab-5x4--6x4--8888---8-8-8-8--|
Eb-5----6----6666---8-8-8-8--|

Verse 1 x4
Eb-----------------------------|
Bb-----------------------------|
Gb-----------------------------|
Db-7777--8888--8888--10101010--|
Ab-5555--6666--8888---8-8-8-8--|
Eb-5555--6666--6666---8-8-8-8--|
   ....  ....  ....   . . . .

Chorus 1 x1
Eb-------------------------|
Bb-------------------------|
Gb-8-----------8-----------|
Db-8x16--8-----8x16--3-----|
Ab-6-----8x16--6-----3x16--|
Eb-------6-----------1-----|

Then:
*Intro 2 x2
*Verse 2 x4
*Chorus 2 x1

Pre-Solo Pt.1
Eb--------------------|
Bb--------------------|
Gb--------------------|
Db-8-8-8-8--8-8--5-7--|
Ab-8-8-8-8--8-8--5-7--|
Eb-6-6-6-6--6-6--3-5--|

Pre-Solo Pt.2
Eb---------------|
Bb---------------|
Gb---------------|
Db-8-8-8--88888--|
Ab-8-8-8--88888--|
Eb-6-6-6--66666--|

Solo Pt.1 x2
Eb-----------|
Bb-8fb--9fb--|
Gb-----------|
Db-----------|
Ab-----------|
Eb-----------|

Solo Pt.2
Eb----------------|
Bb-8fb--8fb--9fb--|
Gb----------------|
Db----------------|
Ab----------------|
Eb----------------|

Solo Pt.3
Eb-----------------------------|
Bb-8fb--9fb---8fb--9fb---11fb--|
Gb-----------------------------|
Db-----------------------------|
Ab-----------------------------|
Eb-----------------------------|

Chorus 3 x1
Eb-------------------------|
Bb-------------------------|
Gb-8-----------8-----------|
Db-8x16--8-----8x16--3-----|
Ab-6-----8x16--6-----3x16--|
Eb-------6-----------1-----|

Post-Chorus 1 x1
Eb---------------------|
Bb---------------------|
Gb---------------------|
Db-3-3-3-3---3-3--5-7--|
Ab-3-3-3-3---3-3--5-7--|
Eb-1-1-1-1---1-1--3-5--|

Outro Pt.1 x3
Eb--------------------|
Bb--------------------|
Gb--------------------|
Db-8-8-8-8--8-8--5-7--|
Ab-8-8-8-8--8-8--5-7--|
Eb-6-6-6-6--6-6--3-5--|

Outro Pt.2
Eb-----------------|
Bb-----------------|
Gb-----------------|
Db-8-8-8---888888--|
Ab-8-8-8---888888--|
Eb-6-6-6---666666--|

Song Order:
*Intro 1 x2
*Verse 1 x4
*Chorus 1 x1
*Intro 2 x2
*Verse 2 x4
*Chorus 2 x1
*Pre-Solo Pt.1
*Pre-Solo Pt.2
*Solo Pt.1 x2
*Solo Pt.2 x1
*Solo Pt.3 x1
*Chorus 3 x1
*Post-Chorus 1 x1
*Outro Pt.1 x3
*Outro Pt.2 x1

Key:
fb=Full Bend



Track 7:Scream!

Intro Pt.1 (Allow For Feedback On The Intro Notes)
Eb--------------------------------------|
Bb--------------------------------------|
Gb--------------------------------------|
Db--------------------------------------|
Ab-2/9~~~~--4~-5~-2~~---/9~~~--4~-5~~~--|
Eb--------------------------------------|

Intro Pt.2
Eb-----------------------------------|
Bb-----------------------------------|
Gb-----------------------------------|
Db-----------------------------------|
Ab-/9~~~~--4~-5~-2~~---/9~~~--5~-4~--|
Eb-----------------------------------|

Pre-Verse Pt.1
Eb---------------------------------------------|
Bb(     x2  )------------3~~-------------------|
Gb-4~--2~--------4~--2~--2~~---4~--2~----------|
Db-4~--2~--5~----4~--2~--0~~---4~--2~--5~~~~~--|
Ab-2~--0~--5~----2~--0~--------2~--0~--5~~~~~--|
Eb---------3~--------------------------3~~~~~--|

Verse 1 Pt.1
Eb-------------------------------|
Bb-------------------------------|
Gb-2-2-----4-4------------7-7----|
Db-2-2x14--4-4x14--5-5----7-7x6--|
Ab-0-0-----2-2-----5-5x6--5-5----|
Eb-----------------3-3-----------|

Verse 1 Pt.2
Eb------------------------------------------|
Bb------------------------------------------|
Gb-2-2-----4-4-------------7-7------2-2-----|
Db-2-2x14--4-4x14--5-5-----7-7x14---2-2x14--|
Ab-0-0-----2-2-----5-5x14--5-5------0-0-----|
Eb-----------------3-3----------------------|

Chorus 1 x2
Eb-----------------------|
Bb-----------------------|
Gb-4-4----2-2------------|
Db-4-4x6--2-2x6--5-5-----|
Ab-2-2----0-0----5-5x14--|
Eb---------------3-3-----|

Then:
*Verse 2 Pt.1
*Verse 2 Pt.2
*Chorus 2 Pt.1 x2

Chorus 2 Pt.2
Eb-----------------------|
Bb---------------3-3-----|
Gb-4-4----2-2----2-2x14--|
Db-4-4x6--2-2x6--0-0-----|
Ab-2-2----0-0------------|
Eb-----------------------|

Chorus 2 Pt.3
Eb-----------------------|
Bb-----------------------|
Gb-4-4----2-2------------|
Db-4-4x6--2-2x6--5-5-----|
Ab-2-2----0-0----5-5x14--|
Eb---------------3-3-----|

Verse 3
Eb----------------------------------------|
Bb----------------------------------------|
Gb-2-----4-4--------------7-7-----2-2-----|
Db-2x16--4-4x14--5-5------7-7x14--2-2x14--|
Ab-0-----2-2-----5-5x14---5-5-----0-0-----|
Eb-.-------------3-3----------------------|

Bridge 1 x2
Eb------------------------------------------------------------|
Bb------------------------------------------------------------|
Gb------------------------------------------------------------|
Db-9--7-9--7-9-7---9--7-9--7-9-7---9--7-9--7-9-7--99-77-55-44-|
Ab-9--7-9--7-9-7---9--7-9--7-9-7---9--7-9--7-9-7--99-77-55-44-|
Eb-7--5-7--5-7-5---7--5-7--5-7-5---7--5-7--5-7-5--77-55-33-22-|

Chorus 3 Pt.1 x2
Eb-----------------------|
Bb-----------------------|
Gb-4-4----2-2------------|
Db-4-4x6--2-2x6--5-5-----|
Ab-2-2----0-0----5-5x14--|
Eb---------------3-3-----|

Chorus 3 Pt.2
Eb-----------------------|
Bb---------------3-3-----|
Gb-4-4----2-2----2-2x14--|
Db-4-4x6--2-2x6--0-0-----|
Ab-2-2----0-0------------|
Eb-----------------------|

Chorus 3 Pt.3
Eb-----------------------|
Bb-----------------------|
Gb-4-4----2-2------------|
Db-4-4x6--2-2x6--5-5-----|
Ab-2-2----0-0----5-5x14--|
Eb---------------3-3-----|

Outro Pt.1 x2
Eb------------------------------------------------------------|
Bb------------------------------------------------------------|
Gb------------------------------------------------------------|
Db-9--7-9--7-9-7---9--7-9--7-9-7---9--7-9--7-9-7-99-77-55-44--|
Ab-9--7-9--7-9-7---9--7-9--7-9-7---9--7-9--7-9-7-99-77-55-44--|
Eb-7--5-7--5-7-5---7--5-7--5-7-5---7--5-7--5-7-5-77-55-33-22--|

Outro Pt.2
Eb-----
Bb-----
Gb-----
Db-9\--
Ab-9\--
Eb-7\--

Song Order:
*Intro Pt.1
*Intro Pt.2
*Pre-Verse Pt.1
*Verse 1 Pt.1
*Verse 1 Pt.2
*Chorus 1 x2
*Verse 2 Pt.1
*Verse 2 Pt.2
*Chorus 2 Pt.1 x2
*Chorus 2 Pt.2
*Chorus 2 Pt.3
*Verse 3
*Bridge 1 x2
*Chorus 3 Pt.1 x2
*Chorus 3 Pt.2
*Chorus 3 Pt.3
*Outro Pt.1 x2
*Outro Pt.2 x1



Track 8:Saturday Night

Intro Pt.1
Eb----------------------------------|
Bb----------------------------------|
Gb---7-----4------------------------|
Db---7x12--4x12--5-----777777--7----|
Ab-2/5-----2-----5x12--777777--7x6--|
Eb---------------3-----555555--5----|
                               .

Intro Pt.2
Eb----------------------------------------------------|
Bb----------------------------------------------------|
Gb----------------------------------------------------|
Db----------------------------------------------------|
Ab-5~~--7--9-7--5-7-9\5~~----5-7-9\5~~---7--5-4--5-7--|
Eb-------------------------7--------------------------|

Verse 1 Pt.1 x2
Eb---------------------------------------------------------------|
Bb---------------------------------------------------------------|
Gb-----7--------7---7-------4--------4---4-----------------------|
Db-777-7-77777--7-7-7---444-4-44444--4-4-4-------5--------5---5--|
Ab-555-5-55555--5-5-5---222-2-22222--2-2-2---555-5-55555--5-5-5--|
Eb-...---.....----.-----...---.....----.-----333-3-33333--3-3-3--|
                                             ...   .....

Eb--------------------|
Bb--------------------|
Gb--------------------|
Db-----7-------7---7--|
Ab-777-7-77777-7-7-7--|
Eb-555-5-55555-5-5-5--|
   ...   .....   .

Verse 1 Pt.2
Eb-------------------------|
Bb-------------------------|
Gb-7-----4-----------------|
Db-7x12--4x12--5-----7-----|
Ab-5-----2-----5x11--7x11--|
Eb-------------3-----5-----|
               .

Pre-Chorus 1 Pt.1 x2
Eb------------------------------|
Bb------------------------------|
Gb---------------7-------7---7--|
Db-5~~--7~~--777-7-77777-7-7-7--|
Ab-5~~--7~~--555-5-55555-5-5-5--|
Eb-3~~--5~~--...---.....---.----|

Pre-Chorus 1 Pt.2
Eb----------------------------------------|
Bb----------------------------------------|
Gb----------------------------------------|
Db-5~~--7~~-------P.M----P.M----5~~--7~~--|
Ab-5~~--7~~------444444-555555--5~~--7~~--|
Eb-3~~--5~~--12\-222222-333333--3~~--5~~--|

Chorus 1 x2
Eb-------------------------------------|
Bb-------------------------------------|
Gb-7-----4---------------------777777--|
Db-7x12--4x12--555555--777777--777777--|
Ab-5-----2-----555555--777777--555555--|
Eb-------------333333--555555----------|

Post-Chorus 1
Eb------------------------------------------------------|
Bb------------------------------------------------------|
Gb------------------------------------------------------|
Db------------------------------------------------------|
Ab-5~~--7--9-7--5-7-9\5~~----5-7-9\5~~---7--5-4--5-7-7--|
Eb-------------------------7----------------------------|

Verse 2 Pt.1
Eb-----------------------------------------|
Bb-----------------------------------------|
Gb-9----9--P.M--9---9--6----6--P.M--6---6--|
Db-9-99-9-99999-9-9-9--6-66-6-66666-6-6-6--|
Ab-7-77-7-77777-7-7-7--4-44-4-44444-4-4-4--|
Eb---..-----------.------..-----------.----|

Eb---------------------------------------|
Bb---------------------------------------|
Gb---------------------------------------|
Db-----7--P.M--7---7------9--P.M--9---9--|
Ab-777-7-77777-7-7-7--999-9-99999-9-9-9--|
Eb-555-5-55555-5-5-5--777-7-77777-7-7-7--|
   ...           .    ...

Verse 2 Pt.2
Eb----------------------------------------------------------|
Bb----------------------------------------------------------|
Gb-999999999999\666666666666--------------------------------|
Db-XXXXXXXXXXXX-XXXXXXXXXXXX---7~~~--7~~~--9~~~--9~~~-------|
Ab-777777777777\444444444444---7~~~--7~~~--9~~~--9~~~-------|
Eb-----------------------------5~~~--5~~~--7~~~--7~~~--\12--|

Pre-Chorus Pt.1 x2
Eb--------------------------------------|
Bb--------------------------------------|
Gb-----------------999999---------------|
Db-777777--999999--999999--------P.M----|
Ab-777777--999999--777777-------222222--|
Eb-555555--777777----------12\--000000--|

Pre-Chorus Pt.2
Eb------------------------------------------------------------------|
Bb------------------------------------------------------------------|
Gb------------------------------------------------------------------|
Db-7~~~--7~~~--9~~~--9~~~----P.M-----P.M----7~~~--7~~~--9~~~--9~~~--|
Ab-7~~~--7~~~--9~~~--9~~~---666666--777777--7~~~--7~~~--9~~~--9~~~--|
Eb-5~~~--5~~~--7~~~--7~~~---444444--555555--5~~~--5~~~--7~~~--7~~~--|

Chorus 2
Eb---------------------------------------------------|
Bb---------------------------------------------------|
Gb-999999--666666-------------9-----6----------------|
Db-999999--666666--7----9-----9x24--6x12---7----9----|
Ab-777777--444444--7x6--9x6---7-----4------7x6--9x6--|
Eb-----------------5----7------------------5----7----|

Outro Pt.1
Eb-------------------------------------|
Bb-------------------------------------|
Gb-9----------6------------------------|
Db-9x6--------6x6---------777777--9----|
Ab-7----7~-6~-4-----------777777--9x6--|
Eb-----------------9~-7~--555555--7----|

Outro Pt.2
Eb-------------------------------|
Bb-------------------------------|
Gb-999999----------666666--------|
Db-999999----------666666--------|
Ab-777777--7~-6~---444444--9~-7~-|
Eb-------------------------------|

Outro Pt.3
Eb----------------------------------------|
Bb----------------------------------------|
Gb----------------------------------------|
Db-7~~~~~~~~---9~~~~~~~~---2-2-----2~~~~--|
Ab-7~~~~~~~~---9~~~~~~~~---2-2x45--2~~~~--|
Eb-5~~~~~~~~---7~~~~~~~~---0-0-----0~~~~--|

Song Order:
*Intro Pt.1
*Intro Pt.2
*Verse 1 Pt.1 x2
*Verse 1 Pt.2
*Pre-Chorus Pt.1 x2
*Pre-Chorus Pt.2
*Chorus 1 x2
*Post-Chorus 1
*Verse 2 Pt.1
*Verse 2 Pt.2
*Pre-Chorus Pt.1 x2
*Pre-Chorus Pt.2
*Chorus 2
*Outro Pt.1
*Outro Pt.2
*Outro Pt.3



Track 9:Pumpkin Head

Intro x2
Eb---------------------------------------|
Bb---------------------------------------|
Gb---------------------------------------|
Db-5~~----5-7-8-7-3~~--8~~---------------|
Ab-5~~--5--------------6~~--3-6-5-3-5~~--|
Eb-3~~-----------------------------------|

Pre-Verse 1
Eb-------------------|
Bb-------------------|
Gb-7777777777777777--|
Db-7777777777777777--|
Ab-5555555555555555--|
Eb-------------------|

Verse 1 Pt.1 x3
Eb-------------------------------------------------|
Bb-------------------------------------------------|
Gb-------------------------------------------P.M---|
Db-4/5--5----8\7--7-----4/5-55--8\7-77--4/5-55555--|
Ab-4/5--5x6--8\7--7x6---4/5-55--8\7-77--4/5-55555--|
Eb-2/3--3----6\5--5-----2/3-33--6\5-55--2/3-33333--|
        .         .         ..      ..

Verse 1 Pt.2
Eb------------------------------------------------------|
Bb------P.M--------P.M----------------------------------|
Gb-4/5-55555--8\7-77777--4/5-55--8\7-77--4/5-55555------|
Db-4/5-55555--8\7-77777--4/5-55--8\7-77--4/5-55555-8-7--|
Ab-2/3-33333--6\5-55555--2/3-33--6\5-55--2/3-33333-8-7--|
Eb---------------------------..------..------------6-5--|

Verse 1 Pt.3
Eb--------------------------------------------------|
Bb--------------------------------------------------|
Gb------P.M--------P.M------------------------P.M---|
Db-4/5-55555--8\7-77777--4/5-55--8\7-77--4/5-55555--|
Ab-4/5-55555--8\7-77777--4/5-55--8\7-77--4/5-55555--|
Eb-2/3-33333--6\5-55555--2/3-33--6\5-55--2/3-33333--|
                             ..      ..

Chorus 1 x2
Eb-----------------------------------------------------------------|
Bb-----------------------------------------------------------------|
Gb-9-9-----------------------9-----9---9-9-------------------------|
Db-9-9x7--9-9----7-7----1111-9-----9---9-9x7--9-9----7----666-444--|
Ab-7-7----9-9x7--7-7x6--1111-7-9-9-7---7-7----9-9x7--7x6--666-444--|
Eb--------7-7----5-5-----9-9---7-7------------7-7----5----444-222--|
                         . .   . .                        ... ...

Then:
*Verse 2 Pt.1 x2
*Verse 2 Pt.2
*Verse 2 Pt.3
*Chorus 2 x2

Bridge x2
Eb------------------------------|
Bb------------------------------|
Gb------------------------------|
Db-4/5-55--7/8-88--4/5-55--8-7--|
Ab-4/5-55--7/8-88--4/5-55--8-7--|
Eb-2/3-33--5/6-66--2/3-33--6-5--|

Then:
*Chorus 3 x2

Outro x4
Eb------------------------------|
Bb------------------------------|
Gb------------------------------|
Db-4/5-55--7/8-88--4/5-55--8-7--|
Ab-4/5-55--7/8-88--4/5-55--8-7--|
Eb-2/3-33--5/6-66--2/3-33--6-5--|

Song Order:
*Intro x2
*Pre-Verse 1
*Verse 1 Pt.1 x3
*Verse 1 Pt.2
*Verse 1 Pt.3
*Chorus 1 x2
*Verse 2 Pt.1 x2
*Verse 2 Pt.2
*Verse 2 Pt.3
*Chorus 2 x2
*Bridge x2
*Chorus 3 x2
*Outro x4



Track 10:Scarecrow Man

Intro 1 Pt.1
Eb----------|
Bb----------|
Gb----------|
Db----------|
Ab----------|
Eb-0*~~~~~--

Intro 1 Pt.2 x4
Eb-------------------------------------|
Bb-------------------------------------|
Gb-------------------------------------|
Db----------------------------------2--|
Ab----------------------------------2--|
Eb-0-6p0-6p0-0--6p0-6p0-0--6p0-6p0--0--|

Pre-Verse 1
Eb-------------------------------------|
Bb-------------------------------------|
Gb-------------------------------------|
Db-------------------------------------|
Ab-------------------------------------|
Eb-0--3-0-3-0-3--0--3-0-3-0-3--6-6-66--|

Verse 1 x4 (Palm-Muted)
Eb---------------------------------------------|
Bb---------------------------------------------|
Gb---------------------------------------------|
Db---------------------------------------------|
Ab---------------------------------------------|
Eb-0--3-0-3-0-3--6-6-66--0--3-0-3-0-3--6-6-66--|

Pre-Chorus 1
Eb---------------------|
Bb---------------------|
Gb-7-5-4--7-5-4--------|
Db-7-5-4--7-5-4--------|
Ab-5-3-2--5-3-2--3phb--|
Eb---------------------|

Chorus 1 x4
Eb------------------------|
Bb------------------------|
Gb------------------------|
Db------------------------|
Ab(    x3    )------------|
Eb-0--3-0-3-0---/7-5-3-2--|

Pre-Solo
Eb-----------|
Bb-----------|
Gb-----------|
Db-4~~--5~~--|
Ab-4~~--5~~--|
Eb-2~~--3~~--|

Solo
Eb-----------------------------------------------------------------------|
Bb---------10-12-10-------------------------10---8----7---8----10---12---|
Gb-9-11-12----------12-11-12-11--12-11-9~~--12B--10B--9B--10B--12B--14B--|
Db-----------------------------------------------------------------------|
Ab-----------------------------------------------------------------------|
Eb-----------------------------------------------------------------------|

Eb------------------------|
Bb-15---13---12-----------|
Gb-17B--15B--14B--17~~~~--|
Db------------------------|
Ab------------------------|
Eb------------------------|

Then:
*Chorus 2 x2
*Verse 2 x4
*Pre-Chorus 2
*Chorus 3 x4

Outro Pt.1 x3
Eb----------------------------|
Bb----------------------------|
Gb----------------------------|
Db-------------------------2--|
Ab---(   x2    )-----------2--|
Eb-0--6p0-6p0-0---6p0-6p0--0--|

Outro Pt.2
Eb-----------------------------------|
Bb-----------------------------------|
Gb-----------------------------------|
Db-----------------------------------|
Ab---(   x2    )---------------------|
Eb-0--6p0-6p0-0---6p0-6p0--/7-5-3-2--|

Song Order:
*Intro 1 Pt.1
*Intro 1 Pt.2 x4
*Pre-Verse 1
*Verse 1 x4 (Palm Muted)
*Pre-Chorus 1
*Chorus 1 x4
*Pre-Solo
*Solo
*Chorus 2 x2
*Verse 2 x4
*Pre-Chorus 2
*Chorus 3 x4
*Outro Pt.1 x3
*Outro Pt.2



Track 11:Die Monster Die

Intro
Eb------------------------------------------|
Bb------------------------------------------|
Gb----------666------777--------------------|
Db----7777--666-4444-777-7777--111111-2-----|
Ab----7777--444-4444-555-7777--111111-2x16--|
Eb-10\5555------2222-----5555---9-9-9\0-----|

Verse 1 x2
Eb--------------------------------------|
Bb--------------------------------------|
Gb------666------777--------------------|
Db-7777-666-4444-777-7777-111111--2-----|
Ab-7777-444-4444-555-7777-111111--2x16--|
Eb-5555-----2222-----5555--9-9-9--0-----|

Chorus 1 x3
Eb------------------|
Bb------------------|
Gb------------7777--|
Db-7----9999--7777--|
Ab-7x8--9999--5555--|
Eb-5----7777--------|

Pre-Verse 1 x1
Eb-----------------|
Bb-----------------|
Gb-22222222--------|
Db-22222222--2-----|
Ab-00000000--2x16--|
Eb-----------0-----|

Then:
*Verse 2 x2
*Chorus 2 x3
*Pre-Verse 2 x1

Bridge x3
Eb-------------------|
Bb-------------------|
Gb------P.M------7-7-|
Db-7-7777777777--7-7-|
Ab-7-7777777777--5-5-|
Eb-5-5555555555------|

Post-Bridge Pt.1
Eb-----------------|
Bb-----------------|
Gb----P.M----P.M---|
Db-7-77777--22222--|
Ab-7-77777--22222--|
Eb-5-55555--00000--|

Post-Bridge Pt.2 x2
Eb-------------------------------------------------|
Bb-------------------------------------------------|
Gb------666------777------------(Play Fast & P.M)--|
Db-7777-666-4444-777-7777-111111-2222222222222222--|
Ab-7777-444-4444-555-7777-111111-2222222222222222--|
Eb-5555-----2222-----5555--9-9-9-0000000000000000--|

Chorus 3 x3
Eb---------------------|
Bb---------------------|
Gb---------------7777--|
Db-77777777-9999-7777--|
Ab-77777777-9999-5555--|
Eb-55555555-7777-------|

Post-Chorus 1
Eb-----------------|
Bb-----------------|
Gb-----------------|
Db-77777777--2-----|
Ab-77777777--2x16--|
Eb-55555555--0-----|

Chorus 4 x3
Eb-----------------------|
Bb-----------------------|
Gb-----------------7777--|
Db-77777777--9999--7777--|
Ab-77777777--9999--5555--|
Eb-55555555--7777--------|

Outro
Eb-------------------------|
Bb-------------------------|
Gb-------------------------|
Db-77777777-2-----7~~~--7--|
Ab-77777777-2x16--7~~~--7--|
Eb-55555555-0-----5~~~--5--|

Song Order:
*Intro
*Verse 1 x2
*Chorus 1 x3
*Pre-Verse 1 x1
*Verse 2 x2
*Chorus 2 x3
*Pre-Verse 2 x1
*Bridge x3
*Post-Bridge Pt.1
*Post-Bridge Pt.2 x2
*Chorus 3 x3
*Post-Chorus 1
*Chorus 4 x3
*Outro



Track 12:Living Hell

Intro Pt.1
Eb-----
Bb-----
Gb-----
Db-7<--
Ab-7<--
Eb-5<--

Intro Pt.2 x4
Eb------------------|
Bb------------------|
Gb------------------|
Db-7-7----33-5-555--|
Ab-7-7x6--33-5-555--|
Eb-5-5----11-3-333--|

Verse 1 x8
Eb-------------------|
Bb-------------------|
Gb-------------------|
Db-7-7---------------|
Ab-7-7x6-------------|
Eb-5-5----1~-3~--1~--|

Pre-Chorus 1
Eb--------------------------------------------------------------|
Bb--------------------------------------------------------------|
Gb------2~~--------------------------------2~~------------------|
Db-3~~--2~~--2~~--3-3-33--3-3-33------3~~--2~~--5~~--555555555--|
Ab-3~~--0~~--2~~--3-3-33--3-3-33------3~~--0~~--5~~--555555555--|
Eb-1~~-------0~~--1-1-11--1-1-11-\10--1~~-------3~~--333333333--|

Chorus 1 x3
Eb----------------------------|
Bb----------------------------|
Gb----------------------------|
Db-777777--------33333-55555--|
Ab-777777-7-5-3--33333-55555--|
Eb-555555--------11111-33333--|

Post-Chorus 1
Eb------------------|
Bb------------------|
Gb------------------|
Db-3~~--2~~---------|
Ab-3~~--2~~---------|
Eb-1~~--0~~--0~-3~--|

Pre-Verse 1 x4
Eb-------------------|
Bb-------------------|
Gb-------------------|
Db-7-7----3-3--5-555-|
Ab-7-7x6--3-3--5-555-|
Eb-5-5----1-1--3-333-|

Verse 2 x8
Eb----------------------|
Bb----------------------|
Gb----P.M---------------|
Db-7-777777-------------|
Ab-7-777777-------------|
Eb-5-555555--1~-3~--1~--|

Pre-Chorus 2
Eb--------------------------------------------------------------|
Bb--------------------------------------------------------------|
Gb------2~~-------------------------------2~~-------------------|
Db-3~~--2~~--2~~--3-3-33--3-3-33-----3~~--2~~--5~~--555555555---|
Ab-3~~--0~~--2~~--3-3-33--3-3-33-----3~~--0~~--5~~--555555555---|
Eb-1~~-------0~~--1-1-11--1-1-11-10\-1~~-------3~~--333333333\--|

Then:
*Chorus 2 x3
*Post-Chorus 2
*Pre-Verse 2 x4

Bridge
Eb-------------|
Bb-------------|
Gb-(Feedback)--
Db-7~~~~~~~----|
Ab-7~~~~~~~----|
Eb-5~~~~~~~----|

Pre-Chorus 3
Eb---------------------------------------------------------------|
Bb---------------------------------------------------------------|
Gb------2~~--------------------------------2~~-------------------|
Db-3~~--2~~--2~~--3-3-33--3-3-33------3~~--2~~--5~~--555555555---|
Ab-3~~--0~~--2~~--3-3-33--3-3-33------3~~--0~~--5~~--555555555---|
Eb-1~~-------0~~--1-1-11--1-1-11-10\--1~~-------3~~--333333333\--|

Chorus 3 x3
Eb----------------------------|
Bb----------------------------|
Gb----------------------------|
Db-777777--------33333-55555--|
Ab-777777-7-5-3--33333-55555--|
Eb-555555--------11111-33333--|

Post-Chorus 3
Eb--------------------|
Bb--------------------|
Gb--------------------|
Db-3~~~--2~~~---------|
Ab-3~~~--2~~~---------|
Eb-1~~~--0~~~--0~-3~--|

Outro Pt.1 x4
Eb----------------------|
Bb----------------------|
Gb----------------------|
Db-7-777777--3-3-5-555--|
Ab-7-777777--3-3-5-555--|
Eb-5-555555--1-1-3-333--|

Outro Pt.2 x1
Eb-----------------|
Bb-----------------|
Gb-2~~~~~~~~~~~~~--
Db-2~~~~~~~~~~~~~--
Ab-0~~~~~~~~~~~~~--
Eb-----------------

Song Order:
*Intro Pt.1
*Intro Pt.2 x4
*Verse 1 x8
*Pre-Chorus 1 x1
*Chorus 1 x3
*Post-Chorus 1 x1
*Pre-Verse 1 x4
*Verse 2 x8
*Pre-Chorus 1 x1
*Chorus 2 x3
*Post-Chorus 2 x1
*Pre-Verse 2 x4
*Bridge
*Pre-Chorus 2x1
*Chorus 3 x3
*Post-Chorus 3 x1
*Outro Pt.1 x4
*Outro Pt.2 x1



Track 13:Descending Angel

Intro Pt.1 x1
Eb------------------------------------|
Bb------------------------------------|
Gb--------7-7-----------------P.M-----|
Db-9-9----7-7x6--7-777777\4-77777777--|
Ab-9-9x6--5-5----7-777777\4-77777777--|
Eb-7-7-----------5-555555\2-55555555--|

Intro Pt.2 x1
Eb-----------------------------------|
Bb-----------------------------------|
Gb--------7-7----------------P.M-----|
Db-9-9----7-7x6--7-777777\444444444--|
Ab-9-9x6--5-5----7-777777\444444444--|
Eb-7-7-----------5-555555\222222222--|

Verse 1 x4
Eb-----------------------------------|
Bb-----------------------------------|
Gb--------7-7-------------P.M--------|
Db-9-9----7-7x6--7-7----77777777--4--|
Ab-9-9x6--5-5----7-7x6--77777777--4--|
Eb-7-7-----------5-5----55555555--2--|

Pre-Chorus 1 x1
Eb----------------------------|
Bb----------------------------|
Gb--------7-777777------------|
Db-9-9----7-777777--7-777777--|
Ab-9-9x6--5-555555--7-777777--|
Eb-7-7--------------5-555555--|

Chorus 1 Pt.1 x4
Eb----------------------------------------|
Bb----------------------------------------|
Gb-----------7-777777-------------P.M-----|
Db-9-999999--7-777777--7-777777\44444444--|
Ab-9-999999--5-555555--7-777777\44444444--|
Eb-7-777777------------5-555555\22222222--|

Chorus 1 Pt.2 x1
Eb----------|
Bb----------|
Gb----------|
Db-4444--4--|
Ab-4444--4--|
Eb-2222--2--|
   ....

Then:
*Verse 2 x4
*Chorus 2 Pt.1 x4

Chorus 2 Pt.2 x1
Eb-----------|
Bb-----------|
Gb---P.M-----|
Db-44444444--|
Ab-44444444--|
Eb-22222222--|

Solo Pt.1
Eb--------------------------------------------------------|
Bb--------------------------------------------------------|
Gb--------------------------------------------------------|
Db-4/9~--11-12-12--11-9-12--11-11p9\7--9h11h12--11h12h14--|
Ab--------------------------------------------------------|
Eb--------------------------------------------------------|

Eb--------------------------------|
Bb---------x4---------------------|
Gb-7/9--12p11p9--11~~--11~~-11~~--|
Db--------------------------------|
Ab--------------------------------|
Eb--------------------------------|

Solo Pt.2
Eb---------------------------------------------|
Bb---------------------------------------------|
Gb----------------------------( x3  )-( x3  )--|
Db-9-8----9-8----9-8----9-8----7-6-----5-4-----|
Ab-----9------9------9------9------7-------5---|
Eb---------------------------------------------|

Solo Pt.3
Eb-----------------------------|
Bb-----------------------------|
Gb(  x2 )----------------------|
Db---7-6-----9-8----9-8----9\--|
Ab-7-------7------9------9-----|
Eb-----------------------------|

Then:
*Chorus 2 Pt.1 x4
*Chorus 2 Pt.2 x1

Outro Pt.1 x3
Eb---------------------------------------------|
Bb---------------------------------------------|
Gb------------7-7777777-------------(  P.M  )--|
Db-9-9999999--7-7777777--7-7777777--44444444---|
Ab-9-9999999--5-5555555--7-7777777--44444444---|
Eb-7-7777777-------------5-5555555--22222222---|

Outro Pt.2
Eb----------------------------------|
Bb----------------------------------|
Gb------------7-7777777-------------|
Db-9-9999999--7-7777777--7-7777777--|
Ab-9-9999999--5-5555555--7-7777777--|
Eb-7-7777777-------------5-5555555--|

Outro Pt.3
Eb-----------------------------|
Bb-----------------------------|
Gb-----------------------------|
Db-4~~~~~~~~~~~--9~~~~~~~~~~~--|
Ab-4~~~~~~~~~~~--9~~~~~~~~~~~--|
Eb-2~~~~~~~~~~~--7~~~~~~~~~~~--|

Song Order:
*Intro Pt.1 x1
*Intro Pt.2 x1
*Verse 1 x4
*Pre-Chorus 1 x1
*Chorus 1 Pt.1 x4
*Chorus 1 Pt.2 x1
*Verse 2 x4
*Chorus 2 Pt.1 x4
*Chorus 2 Pt.2 x1
*Solo Pt.1
*Solo Pt.2
*Solo Pt.3
*Chorus 2 Pt.1 x4
*Chorus 2 Pt.2 x1
*Outro Pt.1 x3
*Outro Pt.2
*Outro Pt.3



Track 14:Them

Intro x2
Eb---------------------------|
Bb---------------------------|
Gb(----x3-P.M----)-----------|
Db----5---8-7---5---3-3-3-3--|
Ab----5---8-7---5---3-3-3-3--|
Eb-00-3-0-6-5-0-3---1-1-1-1--|

Verse 1 x2
Eb---------------------------|
Bb---------------------------|
Gb(----x3-P.M----)-----------|
Db----5---8-7---5---3-3-3-3--|
Ab----5---8-7---5---3-3-3-3--|
Eb-00-3-0-6-5-0-3---1-1-1-1--|

Chorus 1 Pt.1
Eb------------------------|
Bb------------------------|
Gb-7---7---7--------------|
Db-7-7-7-7-7-7-555555555--|
Ab-5-7-5-7-5-7-555555555--|
Eb---5---5---5-333333333--|

Chorus 1 Pt.2
Eb------------------------------|
Bb------------------------------|
Gb-7---7---7-------P.M----------|
Db-7-7-7-7-7-7--999999999--7-5--|
Ab-5-7-5-7-5-7--999999999--7-5--|
Eb---5---5---5--777777777--5-3--|

Then:
*Intro x2
*Verse 2 x2
*Chorus 2 Pt.1
*Chorus 2 Pt.2

Bridge 1 Pt.1
Eb----------------------------------------|
Bb----------------------------------------|
Gb-9-999999----------------------9-8-9-8--|
Db-9-999999--9-999999--7-777777--9-8-9-8--|
Ab-7-777777--9-999999--7-777777--7-6-7-6--|
Eb-----------7-777777--5-555555-----------|

Bridge 1 Pt.2
Eb-----------------------------------------|
Bb-----------------------------------------|
Gb-9-999999--------------------------------|
Db-9-999999--9-999999--7-777777--9-999999--|
Ab-7-777777--9-999999--7-777777--9-999999--|
Eb-----------7-777777--5-555555--7-777777--|

Then:
*Bridge 1 Pt.1

Bridge 1 Pt.3
Eb------------------------------------------|
Bb------------------------------------------|
Gb-9-999999----------------------P.M--------|
Db-9-999999--9-999999--7-777777--9999--7-5--|
Ab-7-777777--9-999999--7-777777--9999--7-5--|
Eb-----------7-777777--5-555555--7777--5-3--|

Then:
*Intro x2
*Verse 3 x2
*Bridge 2 Pt.1
*Bridge 2 Pt.2
*Bridge 2 Pt.1
*Bridge 2 Pt.2
*Bridge 2 Pt.1
*Bridge 2 Pt.2

Bridge 2 Pt.3
Eb------------------------------------------|
Bb------------------------------------------|
Gb-9-999999----------------------P.M--------|
Db-9-999999--9-999999--7-777777--9999--7-5--|
Ab-7-777777--9-999999--7-777777--9999--7-5--|
Eb-----------7-777777--5-555555--7777--5-3--|

Outro x4
Eb--------------------------|
Bb--------------------------|
Gb(-----x3---)--------------|
Db----5---8-7---5--3-3-3-3--|
Ab----5---8-7---5--3-3-3-3--|
Eb-00-3-0-6-5-0-3--1-1-1-1--|

Song Order:
*Intro x2
*Verse 1 x2
*Chorus 1 Pt.1
*Chorus 1 Pt.2
*Intro x2
*Verse 2 x2
*Chorus 2 Pt.1
*Chorus 2 Pt.2
*Bridge 1 Pt.1
*Bridge 1 Pt.2
*Bridge 1 Pt.1
*Bridge 1 Pt.3
*Intro x2
*Verse 3 x2
*Bridge 2 Pt.1
*Bridge 2 Pt.2
*Bridge 2 Pt.1
*Bridge 2 Pt.2
*Bridge 2 Pt.1
*Bridge 2 Pt.2
*Bridge 2 Pt.3
*Outro x4



Track 15:Fiend Club

Intro 1 Pt.1
Eb-----
Bb-----
Gb-----
Db-----
Ab-----
Eb-2/--

Intro Pt.2 x4
Eb--------------------------|
Bb--------------------------|
Gb--------------------------|
Db-6-------------2--P.M--4--|
Ab-6-------------2-22222-4--|
Eb-4--7-4-7-4-7--0-00000-2--|

Verse 1 x4
Eb------------------------------|
Bb------------------------------|
Gb------------------------------|
Db------------------------------|
Ab---(    P.M  )------(P.M)-----|
Eb-4--7-4-7-4-7---0~--00000--2--|

Pre-Chorus 1 Pt.1 x2
Eb---------------|
Bb---------------|
Gb---------------|
Db-6~~~~--2~~~~--|
Ab-6~~~~--2~~~~--|
Eb-4~~~~--0~~~~--|

Pre-Chorus 1 Pt.2
Eb---------|
Bb---------|
Gb---------|
Db-2~~~~~--
Ab-2~~~~~--
Eb-0~~~~~--

Chorus 1 x3
Eb-------------------------|
Bb-------------------------|
Gb-------8888--9999--6666--|
Db-9999--8888--9999--6666--|
Ab-9999--6666--7777--4444--|
Eb-7777--------------------|

Post-Chorus 1
Eb---------------------|
Bb---------------------|
Gb-----------66666666--|
Db-22222222--66666666--|
Ab-22222222--44444444--|
Eb-00000000------------|

Then:
*Intro Pt.2 x2
*Verse 2 x4
*Pre-Chorus Pt.1 x2
*Chorus 2 x3
*Post-Chorus 2 x1

Bridge 1 Pt.1
Eb---------------------------|
Bb---------------------------|
Gb---------------------------|
Db-6-------------2-(P.M)--4--|
Ab-6-------------2-22222--4--|
Eb-4--7-4-7-4-7--0-00000--2--|

Bridge Pt.2
Eb----------------------|
Bb----------------------|
Gb----------------------|
Db-2~~--2~~--2----------|
Ab-2~~--2~~--2x12(P.M)--|
Eb-0~~--0~~--0----------|

Chorus 3 x3
Eb-------------------------|
Bb-------------------------|
Gb-------8888--9999--6666--|
Db-9999--8888--9999--6666--|
Ab-9999--6666--7777--4444--|
Eb-7777--------------------|

Post-Chorus 3 x1
Eb---------------|
Bb---------------|
Gb--------6~~~~--|
Db-2~~~~--6~~~~--|
Ab-2~~~~--4~~~~--|
Eb-0~~~~---------|

Then:
*Chorus 4 x3
*Post-Chorus 4 x1

Outro
Eb--------------|
Bb--------------|
Gb-4~~~~~~~~~~--
Db-4~~~~~~~~~~--
Ab-2~~~~~~~~~~--
Eb--------------

Song Order:
*Intro 1 Pt.1
*Intro Pt.2 x4
*Verse 1 x4
*Pre-Chorus 1 Pt.1 x2
*Pre-Chorus 1 Pt.2
*Chorus 1 x3
*Post-Chorus 1 x1
*Intro Pt.2 x2
*Verse 2 x4
*Pre-Chorus Pt.1 x2
*Chorus 2 x3
*Post-Chorus 2 x1
*Bridge 1 Pt.1
*Bridge Pt.2
*Chorus 3 x3
*Post-Chorus 3 x1
*Chorus 4 x3
*Post-Chorus 4 x1
*Outro x1



Track 16:Hunting Humans

Intro x2
Eb---------------------|
Bb---------------------|
Gb---------------------|
Db-22222222--44444444--|
Ab-22222222--44444444--|
Eb-00000000--22222222--|

Verse 1 x2
Eb----------------------------------|
Bb----------------------------------|
Gb------88888888--9999999999999999--|
Db-9----88888888--9999999999999999--|
Ab-9x8--66666666--7777777777777777--|
Eb-7--------------------------------|

Chorus 1 x1
Eb--------------------------|
Bb--------------------------|
Gb--------------------------|
Db-9----9----6----44444444--|
Ab-9x8--9x8--6x8--44444444--|
Eb-7----6----4----22222222--|

Post-Chorus 1 x1
Eb---------------------|
Bb---------------------|
Gb---------------------|
Db-22222222--44444444--|
Ab-22222222--44444444--|
Eb-00000000--22222222--|

Then:
*Verse 2 x2
*Chorus 2 x1
*Post-Chorus 1 x1

Pre-Bridge 1
Eb-------------|
Bb-------------|
Gb-------------|
Db-2~~~--4~~~--|
Ab-2~~~--4~~~--|
Eb-0~~~--2~~~--|

Bridge 1 Pt.1 x3
Eb---------------------------|
Bb---------------------------|
Gb-4-------------------------|
Db-4x16--22222222--44444444--|
Ab-2-----22222222--44444444--|
Eb-------00000000--22222222--|

Bridge 1 Pt.2
Eb-------------------|
Bb-------------------|
Gb-------------------|
Db-9-----2~~~--4~~~--|
Ab-9x16--2~~~--4~~~--|
Eb-7-----0~~~--2~~~--|

Bridge 1 Pt.3
Eb-------------------------------------|
Bb-------------------------------------|
Gb-4444444444444444--------------------|
Db-4444444444444444--4444444444444444--|
Ab-2222222222222222--4444444444444444--|
Eb-------------------2222222222222222--|

Verse 3 x2
Eb-------------------------------|
Bb-------------------------------|
Gb-----------88888888--99999999--|
Db-99999999--88888888--99999999--|
Ab-99999999--66666666--77777777--|
Eb-77777777----------------------|

Chorus 3
Eb--------------------------|
Bb--------------------------|
Gb--------------------------|
Db-9----9----6----44444444--|
Ab-9x8--9x8--6x8--44444444--|
Eb-7----6----4----22222222--|

Post-Chorus 2 x1
Eb---------------------|
Bb---------------------|
Gb---------------------|
Db-22222222--44444444--|
Ab-22222222--44444444--|
Eb-00000000--22222222--|

Pre-Bridge 2
Eb-------------|
Bb-------------|
Gb-------------|
Db-2~~~--4~~~--|
Ab-2~~~--4~~~--|
Eb-0~~~--2~~~--|

Bridge 2 Pt.1 x3
Eb---------------------------------------|
Bb---------------------------------------|
Gb-4444444444444444----------------------|
Db-4444444444444444--22222222--44444444--|
Ab-2222222222222222--22222222--44444444--|
Eb-------------------00000000--22222222--|

Bridge 2 Pt.2 x2
Eb-----------------------------------|
Bb-----------------------------------|
Gb-4444444444444444------------------|
Db-4444444444444444--2~~~~~--4~~~~~--|
Ab-2222222222222222--2~~~~~--4~~~~~--|
Eb-------------------0~~~~~--2~~~~~--|

Outro
Eb------------------------------------------------|
Bb------------------------------------------------|
Gb-4444444444444444----------------------4~~~~~~--|
Db-4444444444444444--22222222--44444444--4~~~~~~--|
Ab-2222222222222222--22222222--44444444--2~~~~~~--|
Eb-------------------00000000--22222222-----------|

Song Order:
*Intro x2
*Verse 1 x2
*Chorus 1 x1
*Post-Chorus 1 x1
*Verse 2 x2
*Chorus 2 x1
*Post-Chorus 1 x1
*Pre-Bridge 1 x1
*Bridge 1 Pt.1 x3
*Bridge 1 Pt.2 x1
*Bridge 1 Pt.3 x1
*Verse 3 x2
*Chorus 3 x1
*Post-Chorus 2 x1
*Pre-Bridge 2 x1
*Bridge 2 Pt.1 x3
*Bridge 2 Pt.2 x2
*Outro x1



Track 17:Helena

Intro
Eb----------------------|
Bb----------------------|
Gb---4------4-----------|
Db-6-4-4--6-4-4--2-4-5--|
Ab-6-2-4--6-2-4--2-4-5--|
Eb-4---2--4---2--0-2-3--|

Pre-Verse x2
Eb---------------|
Bb---------------|
Gb---4-----------|
Db-6-4-6--2-4-5--|
Ab-6-2-6--2-4-5--|
Eb-4---4--0-2-3--|

Verse 1 x8
Eb---------------|
Bb---------------|
Gb---4-----------|
Db-6-4-6--2-4-5--|
Ab-6-2-6--2-4-5--|
Eb-4---4--0-2-3--|

Interlude Pt.1 x3
Eb------------------------|
Bb------------------------|
Gb------4-----------------|
Db-6----4----4-----2-4-5--|
Ab-6-66-2-44-4-444-2-4-5--|
Eb-4-44---22-2-222-0-2-3--|
     ..   ..   ...

Interlude Pt.2
Eb-----------------|
Bb-----------------|
Gb------4----------|
Db-6----4----4~~~--|
Ab-6-66-2-44-4~~~--|
Eb-4-44---22-2~~~--|
     ..   ..

Pre-Verse 2 Pt.1 x2
Eb--------------------------------------------------|
Bb--------------------------------------------------|
Gb--------------------------------------------------|
Db-999-101010-777-999-55-777-444-555-222-444--------|
Ab-777--8-8-8-555-777-33-555-222-333-000-222-55-77--|
Eb-------------------------------------------33-55--|

Pre-Verse 2 Pt.2 x2
Eb-----------------------------------------------------------|
Bb-----------------------------------------------------------|
Gb-----------------------------------------------------------|
Db--------------------------------------------1010--10-10-9--|
Ab--------------------------------------------1010--10-10-9--|
Eb-7-0-8-0-10-0-8-0-7-0-5-0--7*---7-0-8-10-0---8-8---8--8-7--|
     .   .    .   .   .   .         .      .

Chorus 1 Pt.1 x2
Eb-----------------|
Bb-----------------|
Gb-9-9-----7-7-----|
Db-9-9x14--7-7x14--|
Ab-7-7-----5-5-----|
Eb-----------------|

Chorus 1 Pt.2 x2
Eb------------------------------------|
Bb------------------------------------|
Gb-9--P.M---12-10-9--7--P.M----7-5-7--|
Db-9-999999-12-10-9--7-777777--7-5-7--|
Ab-7-777777-10--8-7--5-555555--5-3-5--|
Eb------------------------------------|

Then:
*Pre-Verse 2 Pt.2 x2
*Chorus 2 Pt.1
*Chorus 2 Pt.2 x2
*Pre-Verse 2 Pt.2 x4

Bridge 1 Pt.1
Eb------------------------------------------------|
Bb------------------------------------------------|
Gb------------------------------------------------|
Db-9~~-------9~~--55-77--10----------10~~--55-77--|
Ab-9~~--9999-9~~--55-77--10-10101010-10~~--55-77--|
Eb-7~~--7777-7~~--33-55---8--8-8-8-8--8~~--33-55--|
        ....

Bridge 1 Pt.2
Eb-------------------------|
Bb-------------------------|
Gb-------------------------|
Db-9------9--55-77--4~~~~--|
Ab-9-9999-9--55-77--4~~~~--|
Eb-7-7777-7--33-55--2~~~~--|
     ....    .. ..

Outro Pt.1
Eb----------------------|
Bb----------------------|
Gb---4------4-----------|
Db-6-4-6--6-4-6--2-4-5--|
Ab-6-2-6--6-2-6--2-4-5--|
Eb-4---4--4---4--0-2-3--|

Outro Pt.2 x5
Eb-------------------------|
Bb-------------------------|
Gb------4------------------|
Db-6----4----4-P.M--2-4-5--|
Ab-6-66-2-44-4-444--2-4-5--|
Eb-4-44---22-2-222--0-2-3--|
     ..   ..

Outro Pt.3
Eb------------------------|
Bb------------------------|
Gb------4-----------------|
Db-6-66-4-44-6~~~~~~~~~~--|
Ab-6-66-2-44-6~~~~~~~~~~--|
Eb-4-44---22-4~~~~~~~~~~--|
     ..   ..

Song Order:
*Intro x1
*Pre-Verse x2
*Verse 1 x8
*Interlude Pt.1 x3
*Interlude Pt.2 x1
*Pre-Verse 2 Pt.1 x2
*Pre-Verse 2 Pt.2 x2
*Chorus 1 Pt.1 x2 x1
*Chorus 1 Pt.2 x2 x1
*Pre-Verse 2 Pt.2 x2
*Chorus 2 Pt.1 x1
*Chorus 2 Pt.2 x2
*Pre-Verse 2 Pt.2 x4
*Bridge 1 Pt.1 x1
*Bridge 1 Pt.2 x1
*Outro Pt.1 x1
*Outro Pt.2 x5
*Outro Pt.3 x1

Track 18:Kong Unleashed

Intro
Eb---------------------------------------------------------------------|
Bb---------------------------------------------------------------------|
Gb-2~~~--5-4~~~--5-4-2~~~---5--4-5--4-5--4-5---4-5-4--2~~~~~~~~~~~~~~--|
Db-2~~~--5-4~~~--5-4-2~~~---5--4-5--4-5--4-5---4-5-4--2~~~~~~~~~~~~~~--|
Ab-0~~~--3-2~~~--3-2-0~~~---3--2-3--2-3--2-3---2-3-2--0~~~~~~~~~~~~~~--|
Eb---------------------------------------------------------------------|

Key:
~=Let Ring
/=Slide Up
\=Slide Down
<=Fade In
P.M=Palm Mute
.=Palm Mute
p=Pull Off The Note
h=Hammer On The Note
phb=Pinch Harmonic Bend
B=Bend The Note
fb=Full Bend
*=Pinch Harmonic

And That's It...Thats The Entire Misfits Album
"Famous Monsters", I Hope Everybody Enjoys This Full Length Album Tab.
Don't Forget To Rate And Comment If You Liked The Tab, And Comment Any
Corrections, I Welcome Corrections.
comments
We did not receive enough feedback on this tab! Please rate:
print report bad tab
1 2 3 4 5
I want to post or [tab]
guest
You may want to rate the tab now too:
select rating
Please do not post tabs as comments. Select "correction" instead!