Oops, an error
Loading. Please wait.

Plan 9 Tab

1,905 views 1 this week
1 commentread comment
1 2 3 4 5
worth learning
x 1
Autoscroll
+/-
esc
set tempo
stop
Contributor
Difficulty
novice
Hey! There's an official Ultimate Guitar app which is ideal
for learning songs when you're away from computer. Get the app
WARNING: You are trying to view
                                    content from Ultimate-Guitar.com
                                    in an unauthorized application,
                                    which is prohibited.

                                    Please use an official Ultimate
                                    Guitar Tabs application for iPhone,
                                    iPad or Android to access legitimate
                                    chords, guitar, bass, and drum tabs
                                    from Ultimate-Guitar.com database.

                                    Type "ultimate guitar tabs" in Apple
                                    App Store's or Android Market's
                                    search to find the application.
-SHE-


Tuning: Standard

(intro)
e|------------------------------------------------|
B|------------------------------------------------|
G|------------------------------------------------|
D|-------------------7-x-5------------------------|
A|--7-7-7-7-7-7-7-7--5-x-3--5-5-5-5-5--7-7-7-7-7--|
E|--5-5-5-5-5-5-5-5---------3-3-3-3-3--5-5-5-5-5--|

(verse)
e|----------------------------------------------|
B|----------------------------------------------|
G|----------------------------------------------|
D|----------------------------------------------|
A|--7-7-7-7-7-7-7-7-7-7--5-5-5-5-5--7-7-7-7-7---|
E|--5-5-5-5-5-5-5-5-5-5--3-3-3-3-3--5-5-5-5-5---|

(chorus)
e|----------------------------------------|
B|----------------------------------------|
G|----------------------------------------|
D|----------------------------------------|
A|--7-77-77--5-55-55--3-33-33--5-55-55----|
E|--5-55-55--3-33-33--1-11-11--3-33-33----|

(fill)
e|------------------------------------------------|
B|------------------------------------------------|
G|------------------------------------------------|
D|------------------------------------------------|
A|--7-7-7-7-7-7-7-7-7-7-7-7-7-7-7-7-7-7-----------|
E|--5-5-5-5-5-5-5-5-5-5-5-5-5-5-5-5-5-5-----------|

(riff 5)
e|-------------------------------|
B|-------------------------------|
G|-------------------------------|
D|-------------------------------|
A|--5-5-5-5-5-5-5--7-7-7-7-7-7-7-|
E|--3-3-3-3-3-3-3--5-5-5-5-5-5-5-|

(outro)
e|------------------------------------------------|
B|------------------------------------------------|
G|------------------------------------------------|
D|------------------------------------------------|
A|--7-7-7-7-7-7-7-7-7-7-7-7-7-7-7-7-7-7:----------|
E|--5-5-5-5-5-5-5-5-5-5-5-5-5-5-5-5-5-5:----------|


order:
intro     2x
verse     4x
chorus    2x
fill      1x
intro     2x
verse     2x
riff 5    2x
outro     1x

-Hollywood Babylon-

Main Riff
|---------|
|---------|
|---------|
|---------|
|---------|
|-0-0-3-0-|

Interlude
|----------------------------------------------------------|
|----------------------------------------------------------|
|-2--2-2-2-2-3-3-3-3-2-2-2-2-------------------------------|
|-2--2-2-2-2-3-3-3-3-2-2-2-2-------------------------------|
|-0--0-0-0-0-1-1-1-1-0-0-0-0-2-2---------------------------|
|----------------------------0-0-3-0-----------------------|

Chorus
|-----------------------------------------------------------------|
|-----------------------------------------------------------------|
|---------------------------------3-3-3-3-3-3-3-3-----------------|
|---------------------------------3-3-3-3-3-3-3-3-5-5-5-5-5-5-5-5-|
|---------------------------------1-1-1-1-1-1-1-1-5-5-5-5-5-5-5-5-|
|-0-0-3-0-0-0-3-0-0-0-3-0-0-0-3-0-----------------3-3-3-3-3-3-3-3-|

Bridge
|----------------------------------------------------------|
|----------------------------------------------------------|
|-------------------------3-3------------------------------|
|-------------------------3-3------------------------------|
|-------------------------1-1------------------------------|
|-0-0-3-0-0-0-3-0-0-0-3-0----------------------------------|


-Bullet-


]------------------------------------------------------------|
]------------------------------------------------------------|
]-7-7-7-7-7-7-7-7-7-7-7-7-7-7--5-5--10-10--7-----------------|
]-7-7-7-7-7-7-7-7-7-7-7-7-7-7--5-5--10-10--7-----------------|
]-5-5-5-5-5-5-5-5-5-5-5-5-5-5--3-3---8--8--5-----------------|
]------------------------------------------------------------|  x3 (three times)

]------------------------------------------------------------|
]------------------------------------------------------------|
]-7-7-7-7-7-7-7-7-7-7-7-7-7-7---5-5-5-5-5-5-5-5-5-5-5-5-5-5--|
]-7-7-7-7-7-7-7-7-7-7-7-7-7-7---5-5-5-5-5-5-5-5-5-5-5-5-5-5--|
]-5-5-5-5-5-5-5-5-5-5-5-5-5-5---3-3-3-3-3-3-3-3-3-3-3-3-3-3--|
]------------------------------------------------------------|

]------------------------------------------------------------|
]------------------------------------------------------------|
]-3-3-3-3-3-3-3-3--5-5-5-5-5-5-5-5--7-7-7-7-7-7-7-7-7-7-7-7--|
]-3-3-3-3-3-3-3-3--5-5-5-5-5-5-5-5--7-7-7-7-7-7-7-7-7-7-7-7--|
]-1-1-1-1-1-1-1-1--3-3-3-3-3-3-3-3--5-5-5-5-5-5-5-5-5-5-5-5--|
]------------------------------------------------------------|  x1 (one time)

]------------------------------------------------------------|
]------------------------------------------------------------|
]-7-7-7-7-7-7-7-7-7-7-7-7-7-7--5-5--10-10--7-----------------|
]-5-5-5-5-5-5-5-5-5-5-5-5-5-5--5-5--10-10--7-----------------|
]-5-5-5-5-5-5-5-5-5-5-5-5-5-5--3-3---8--8--5-----------------|
]------------------------------------------------------------|  x2 (two times)

]------------------------------------------------------------|
]------------------------------------------------------------|
]-7-7-7-7-7-7-7-7-7-7-7-7-7-7---5-5-5-5-5-5-5-5-5-5-5-5-5-5--|
]-5-5-5-5-5-5-5-5-5-5-5-5-5-5---5-5-5-5-5-5-5-5-5-5-5-5-5-5--|
]-5-5-5-5-5-5-5-5-5-5-5-5-5-5---3-3-3-3-3-3-3-3-3-3-3-3-3-3--|
]------------------------------------------------------------|

]------------------------------------------------------------|
]------------------------------------------------------------|
]-3-3-3-3-3-3-3-3--5-5-5-5-5-5-5-5--7-7-7-7-7-7-7-7-7-7-7-7--|
]-3-3-3-3-3-3-3-3--5-5-5-5-5-5-5-5--7-7-7-7-7-7-7-7-7-7-7-7--|
]-1-1-1-1-1-1-1-1--3-3-3-3-3-3-3-3--5-5-5-5-5-5-5-5-5-5-5-5--|
]------------------------------------------------------------|  x1 (one time)

]------------------------------------------------------------|
]------------------------------------------------------------|
]-12-12-12-12-12-12-12-12--7-7-7-7-7-7-7-7-7-7-7-7-----------|
]-12-12-12-12-12-12-12-12--7-7-7-7-7-7-7-7-7-7-7-7-----------|
]-10-10-10-10-10-10-10-10--5-5-5-5-5-5-5-5-5-5-5-5-----------|
]------------------------------------------------------------|  x17 (seventeen times)

]------------------------------------------------------------|
]------------------------------------------------------------|
]--5-5--10-10--7----5-5--10-10--7----5-5--10-10--7-7-5-7-----|
]--5-5--10-10--7----5-5--10-10--7----5-5--10-10--7-7-5-7-----|
]--3-3---8--8--5----3-3---8--8--5----3-3--10-10--5-5-3-5-----|
]------------------------------------------------------------|  x1 (one time)

-Horror Business-


riff 1)
e|-----------------------------------------------------|
B|-----------------------------------------------------|
G|-----------------------------------------------------|
D|-----------------------------------------------------|
A|--8-7--5-5---5--5-5---5--5-5---5--5-5---5--8-8-7-7---|
E|--6-5--3-3-6-3--3-3-6-3--3-3-6-3--3-3-6-3--6-6-5-5---|

(riff 2)
e|-------------------------------------|------------|
B|-------------------------------------|------------|
G|-------------------------------------|------------|
D|-------------------------------------|------------|
A|--5-5---5--5-5---5--5-5---5--5-5---5-|-8-8-7-7----|
E|--3-3-6-3--3-3-6-3--3-3-6-3--3-3-6-3-|-6-6-5-5----|

(riff 3)
e|--------------------------------------|
B|--------------------------------------|
G|--------------------------------------|
D|--------------------------------------|
A|--8-8-8-8-8-7-7-7-7-7-10-10-10-10-10--|
E|--6-6-6-6-6-5-5-5-5-5-8--8--8--8--8---|

(chorus)
e|---------------------------------------------------------------------------------|
B|---------------------------------------------------------------------------------|
G|---------------------------------------------------------------------------------|
D|-10-10-10-10-10-10-10------------------------------------------------------------|
A|-8--8--8--8--8--8--8--10-10-10-10-10-10-10--8-8-8-8-8-8-8--10-10-10-10-10-10-10--|
E|-------=---8--8--8--8--8--8--8---6-6-6-6-6-6-6--8-8-8-8-8-8-8-8-8-8--------------|

(solo)
e|--13-13-13-13-13-13-13-13---8-8-8-8-8-8-8-6-6-6-6-6-6-6-8-8-8-8-8-8----------|
B|--13-13-13-13-13-13-13-13---8-8-8-8-8-8-8-6-6-6-6-6-6-6-8-8-8-8-8-8----------|
G|-----------------------------------------------------------------------------|
D|-----------------------------------------------------------------------------|
A|-----------------------------------------------------------------------------|
E|-----------------------------------------------------------------------------|

(solo cont.)
e|----------------------------------------------------------------------|
B|--6^-6^-6^--8^-8^-8^--11^-11^-11^-13^-13^-13^-------------------------|
G|-----------------------------------------------12h14(trill)--- -------|
D|----------------------------------------------------------------------|
A|----------------------------------------------------------------------|
E|----------------------------------------------------------------------|

order:
riff 1       1x
riff 2       5x
riff 3       1x
riff 1       1x
riff 2       5x
riff 3       1x
chorus       4x
riff 1       1x
riff 2       5x
riff 3       1x
riff 1       1x
riff 2       5x
riff 3       1x
chorus       4x
solo         1x(another guitar plays chorus over this)
chorus       2x(1st time palm muted)
end with F chord


-Teenagers From Mars-

MAIN RIFF (used as intro and verses)
|------------------------------|
|------------------------------|
|------------------------------|
|--5--5--5-5-5-6--6-6-6-6-6-3--|
|--5--5--5-5-5-6--6-6-6-6-6-3--|
|--3--3--3-3-3-4--4-4-4-4-4-1--|

PRECHORUS (4 times)
|----------------------------------|
|----------------------------------|
|--6-6-6-6-6-6-6-6-----------------|
|--6-6-6-6-6-6-6-6-6-6-6-6-6-6-6-6-|
|--4-4-4-4-4-4-4-4-6-6-6-6-6-6-6-6-|
|------------------4-4-4-4-4-4-4-4-|


CHORUS_______________________3x_|_then_______________________3x_|
|-------------------------------|-------------------------------|
|-------------------------------|-------------------------------|
|-4--4--4-4-4-------------------|---------------9--9--9-9-9-9---|
|-4--4--4-4-4---2--2--2-2-2-2---|-8--8--8-8-8---9--9--9-9-9-9---|
|-2--2--2-2-2---2--2--2-2-2-2---|-8--8--8-8-8---7--7--7-7-7-7---|
|---------------0--0--0-0-0-0---|-6--6--6-6-6-------------------|

REPEAT INTRO/VERSE
REPEAT PRECHORUS
REPEAT CHORUS
REPEAT INTRO/VERSE
REPEAT PRECHORUS
REPEAT CHORUS

OUTRO________________________3x_|_then________________until end_|
|-------------------------------|-------------------------------|
|-------------------------------|-------------------------------|
|-4--4--4-4-4-------------------|---------------4--4--4-4-4-4---|
|-4--4--4-4-4---2--2--2-2-2-2---|-7--7--7-7-7---4--4--4-4-4-4---|
|-2--2--2-2-2---2--2--2-2-2-2---|-7--7--7-7-7---2--2--2-2-2-2---|
|---------------0--0--0-0-0-0---|-5--5--5-5-5-------------------|


-Night Of The Living Dead-


INTRO/CH0RUS:5 TIMES
e|--------------------------------------------------------------------|
B|--------------------------------------------------------------------|
G|--------------------------------------------------------------------|
D|55555555-------------------33333333---------------------------------|
A|33333333-55555555-33333333-11111111---------------------------------|
E|---------33333333-11111111------------------------------------------|

  VERSE:(8 TIMES)  PRE-CHORUS
e|---------------|----------------------------------------------------|
B|---------------|----------------------------------------------------|
G|---------------|----------------------------------------------------|
D|-------33333333|-222233-333-2222233-3333-222223333------------------|
A|3333333--------|-000011-111-0000011-1111-000001111-55555555555------|
E|---------------|-----------------------------------33333333333------|

   CHORUS (SAME AS INTRO):4 TIMES
   2nd VERSE (ONLY 4 TIMES)
   PRE-CHOURUS
   CHOURUS

OUTRO:
e|--------------------------------------------------------------------|
B|--------------------------------------------------------------------|
G|--------------------------------------------------------------------|
D|--------------------------------------------------------------------|
A|555555555555555555555555555555555-----------------------------------|
E|333333333333333333333333333333333-----------------------------------|

-Where Eagles Dare-

Intro:
1|------------------------|
2|------------------------|
3|------------------------|
4|-7-7-7-7-7-7-7-7-7-7--5-|
5|-7-7-7-7-7-7-7-7-7-7--5-|
6|-5-5-5-5-5-5-5-5-5-5--3-|

---------------------------

Chorus:
1|-------------------------|
2|-------------------------|
3|-5-5-5-5-----------------|
4|-5-5-5-5--3-3-3-3--------|
5|-3-3-3-3--3-3-3-3--5-5-5-|
6|----------1-1-1-1--3-3-3-|

-Vampira-


Intro
E|-10-10-10-10-10-10-|
B|-------------------|
G|-------------------|
D|-------------------|
A|-------------------|
E|-------------------|

Riff 1: Played under the intro
E-----------------------|
B-----------------------|
G-----------------------|
D-222-----777777--------|
A-222-333-555555--------|
E-000-111-------  x's 2-|

Riff 2:
|-----------------------------|
|-----------------------------|
|-----------------------------|
|-----------------------------|
|---5----7--5-7---5---7--5-7--|
|---0----0--0-0---0---0--0-0--|

Played underneath riff 2
E---------|
B---------|
G---------|
D---------|
A-77777777
E-55555555

Riff 3:
E-------------------------|
B-------------------------|
G-------------------------|
D--------444-4-4-4--------|
A-777777-222-2-2-2--------|
E-555555----------  x's 4-|

Riff 2/underneath

Riff 3 x's 4

Riff 2

Riff 1/intro x's 6
-I Turned Into A Martian-


intro)
e|-------------------------|
B|-------------------------|
G|-------------------------|
D|----------------8-8-8:---|
A|--6-6-6--8-8-8--6-6-6:---|
E|--4-4-4--6-6-6-----------|
    D U D  D U D  D U D

(riff 2)
e|---------------------------------------|
B|---------------------------------------|
G|---------------------------------------|
D|------------------------8-8------------|
A|--10-10-10-10-10-10-10--6-6--8-8-8-----|
E|--8--8--8--8--8--8--8--------6-6-6-----|

(riff 3a)
e|---------------------------------------|
B|---------------------------------------|
G|---------------------------------------|
D|--------------------8-8-8-8--8---------|
A|--6-6-6-6--8-8-8-8--6-6-6-6--6---8-----|
E|--4-4-4-4--6-6-6-6---------------6-----|

(riff 3b)
e|-------------------------|
B|-------------------------|
G|-------------------------|
D|-------------------------|
A|--6-6-6-6--8-8-8-8-------|
E|--4-4-4-4--6-6-6-6-------|

(riff 4)
e|-----------------------------------------------------------|
B|-----------------------------------------------------------|
G|-----------------------------------------------------------|
D|----------------------------10-10-10-10-10-10-10-10-10-----|
A|---10-10-10-10-10-10-10-10--8--8--8--8--8--8--8--8--8------|
E|---8--8--8--8--8--8--8--8----------------------------------|

(solo)
e|--3-3-3-3-3-3-3--8-8-8-8-8-8-8--3-3-3-3-3-3-3--8-8-8-8-8-8-8-|
B|-------------------------------------------------------------|
G|-------------------------------------------------------------|
D|-------------------------------------------------------------|
A|-------------------------------------------------------------|
E|-------------------------------------------------------------|


order:
intro      1x
riff 2     6x
riff 3a    3x
riff 3b    1x
riff 2     6x
riff 3a    3x
riff 3b    1x
riff 4     2x
solo       1x
riff 3a    9x


-Skulls-


1st guitar
e|-----------------------------------------------------------|
b|-----------------------------------------------------------|
g|-----------------------------------------------------------|  REPEAT FOUR TIMES
d|------------------------9-9-9-9----11-11-11-11---7-7-7-7---|
a|------------7-7-7-7-----7-7-7-7----9-9-9-9-------5-5-5-5---|
e|------------5-5-5-5----------------------------------------|


1st gutar
e|--------------------------------------------------|
b|--------------------------------------------------|
g|----------6-6-6-6-6-6-6-6-------------------------|     4x     2nd guitar plays with first
d|----------4-4-4-4-4-4-4-4---7-7-7-7-7-7-7-7-------|
a|----------------------------5-5-5-5-5-5-5-5-------|
e|--------------------------------------------------|

1st guitar
e|--------------------------------------|
b|--------------------------------------|
g|--------------------------------------|            right after riff above
d|----------7-7-7--9-9-9----------------|
a|----------5-5-5--7-7-7----------------|
e|--------------------------------------|


2nd guitar
e|-----------------------------------------------|
b|-----------------------------------------------|
g|--------------------------  4x  the D (x--5-7--|  goes with the first 8 strums from the first guiat and the E
d|----------7----------9----         (x--7-9-----| gouns with the next 8 stums the 1st guitar plays
a|----------5----------7-------------------------|
e|-----------------------------------------------|


1st guitar
e|---------------------------------------------------------------------|
b|---------------------------------------------------------------------|
g|---------------------------------------------------------------------|  2x
d|----------------------9-9-9-9--------11-11-11-11------7-7-7-7--------|
a|------------7-7-7-7---7-7-7-7---------9--9--9--9-------5-5-5-5-------|
e|------------5-5-5-5--------------------------------------------------|


1st gutar
e|--------------------------------------------------|
b|--------------------------------------------------|
g|----------6-6-6-6-6-6-6-6-------------------------|     4x
d|----------4-4-4-4-4-4-4-4---7-7-7-7-7-7-7-7-------|
a|----------------------------5-5-5-5-5-5-5-5-------|
e|--------------------------------------------------|

2nd guitar
e|-------------------------------------------------|
b|-------------------------------------------------|
g|---------------------------   4x  the D (x--5-7--|  goes with the first 8 strums from the first guitar and the E
d|----------7----------9-----       (x--7-9--------| goes with the next 8 stums the 1st guitar plays
a|----------5----------7---------------------------|
e|-------------------------------------------------|

1st guitar
e|-------------------------------             e|----------------------------------|
b|-------------------------------             b|----------------------------------|
g|----------6-6-6-6-6-6----------   8x        g|----------------------------------|
d|----------4-4-4-4-4-4--7--9----             d|---6-6-6-6-6-6-6-6-6-6-6-6--------|
a|-----------------------5--7----             a|---4-4-4-4-4-4-4-4-4-4-4-4--------|
e|-------------------------------             e|----------------------------------|

e|----------------------------------------------------------------------------------------------|
b|----------------------------------------------------------------------------------------------|
g|----------6-6-6-6-6-6-6-6-----------------------6-6-6-6-6-6-6-6-------------------------------|   8x
d|----------4-4-4-4-4-4-4-4--7-7-7-7-7-7-7-7------4-4-4-4-4-4-4-4--7-7-7-7-7-7-7-7--7-7-7-9-9-9-|
a|---------------------------5-5-5-5-5-5-5-5-----------------------5-5-5-5-5-5-5-5--5-5-5-7-7-7-|
e|----------------------------------------------------------------------------------------------|

e|-------------------------------|
b|-------------------------------|
g|-------------------------------|
d|----------6-6-6-6-6-6-6-6------|
a|----------4-4-4-4-4-4-4-4------|
e|-------------------------------|


-London Dungeon-


Main Riff:
E|-----------------------------------|
B|-----------------------------------|  Slide between these
G|-----------------------------------|  notes on the E string.
D|-----------------------------------|
A|-----------------------------------|
E+-0-----7-----3---5-----3-----2-----|
 |                                 |
 |                                 |
G+-----------------------------------|
D|-----------------------------------|
A|-----------------------------------|
E|-0-0-0-0-0-0-0-0-5-5-5-3-3-3-2-2---|

  Verse Riff:
  Guitar:  During the verses, the guitars play Emin chords
           (and feedback) at the beginning of each measure.
           Live, the guitar would double the bass riff.
  Bass:    Continues the Main Riff simile throughout the verses.

  Chorus Riff:
E|---------------------------------|-0---------------------------------|
B|---------------------------------|-0---------------------------------|
G|---------------------------------|-0---------------------------------|
D|-2-2-3---2-2-3---2-2-3---2-2-3---|-2---------------------------------|
A|-2-2-3---2-2-3---2-2-3---2-2-3---|-2---------------------------------|
E+-0-0-1---0-0-1---0-0-1---0-0-1---|-0---------------------------------|
 | pm>     pm>     pm>     pm>       w/feedback and random noise     |
 |                                                                   |
G+---------------------------------|-----------------------------------|
D|---------------------------------|-----------------------------------|
A|---------------------------------|-----------------------------------|
E+-0-0-1---0-0-1---0-0-1---0-0-1---|-0---------------------------------|
 |                                                                   |
 |                                                                   |
E+---------------------------------|-----------------------------------|
B|---------------------------------|-----------------------------------|
G|---------------------------------|-----------------------------------|
D|---------------------------------|-----------------------------------|
A|-8-------3-------8-------3-------|-7---------------------------------|
E|---------------------------------|-----------------------------------|

  Chorus End:
E|---------------------------------|-----------------------------------|
B|---------------------------------|-----------------------------------|
G|---------------------------------|-----------------------------------|
D|-2-2-3---2-2-3---2-2-3---2-2-3---|-2-2-5---2-2-5---2-2-5---2-2-5-----|
A|-2-2-3---2-2-3---2-2-3---2-2-3---|-2-2-5---2-2-5---2-2-5---2-2-5-----|
E+-0-0-1---0-0-1---0-0-1---0-0-1---|-0-0-3---0-0-3---0-0-3---0-0-3-----|
 | pm>     pm>     pm>     pm>       pm>     pm>     pm>     pm>     |
 |                                                                   |
G+---------------------------------|-----------------------------------|
D|---------------------------------|-----------------------------------|
A|---------------------------------|-----------------------------------|
E+-0-0-1---0-0-1---0-0-1---0-0-1---|-0-0-3---0-0-3---0-0-3---0-0-3-----|
 |                                                                   |
 |                                                                   |
E+---------------------------------|-----------------------------------|
B|---------------------------------|-----------------------------------|
G|---------------------------------|-----------------------------------|
D|---------------------------------|-----------------------------------|
A|-8-------3-------8-------12------|-10------5-------10------14--------|
E|---------------------------------|-----------------------------------|

-songflow-
 drums...
 main riff     (4x) bass only
 main riff     (4x) guitar enters
 verse riff    (4x)
 main riff     (2x)
 verse riff    (4x)
 chorus riff   (2x)
 chorus end
 main riff     (2x)
 verse riff    (4x)
 chorus riff   (2x)
 chorus end
 main riff     (2x) guitar doubles bass riff
 verse riff    (4x)
 chorus riff   (2x)
 chorus end
 main riff     (4x) fade out...


-Ghouls Night Out-


Riff 1:
E---------------------------|
B---------------------------|
G---------------------------|
D---------------77-22-------|
A-777777-555555-55-22 x's 4-|
E-555555-333333----00-------|

Riff 2:
E----------------------------------------------------------|
B----------------------------------------------------------|
G----------------------------------------------------------|
D-2222222-77777777------------------222222-5555555-4444444-|
A-2222222-55555555------------------222222-3333333-2222222-|
E-0000000----------- x's 2 then ----000000-----------------|

Riff 3:
E---------------------------------------------|
B---------------------------------------------|
G---------------------------------------------|
D-----------66666666-777777777-22222222-------|
A-777777777-44444444-555555555-22222222-------|
E-555555555--------------------00000000 x's 2-|

Riff 2

Riff 1 x's 8


-Astro Zombies-


Intro:

e|---------------------|
B|---------------------|
G|-55-4----------------|
D|-55-4-77-5-3333-5555-|
A|-33-2-77-5-3333-5555-|
E|------55-3-1111-3333-|

Verse:

e|--------------------|
B|--------------------|
G|-55555555-----------|
D|-55555555-3333-5555-|
A|-33333333-3333-5555-|
E|----------1111-3333-|

Chorus:

e|--------------------------------------|
B|--------------------------------------|
G|-55555555----------77777777-----------|
D|-55555555-77777777-77777777-3333-5555-|
A|-33333333-77777777-55555555-3333-5555-|
E|----------55555555----------1111-3333-|

Order:

Intro: x2
Verse: x2
Chorus: x4
Verse: x2
Chrous: x4
Verse: x4
Intro: x2
-Mommy Can I Go Out & Kill Tonight?-


Riff 1:
E----------------------------------|
B----------------------------------|
G----------------------------------|
A-----------555555555--------------|
D-777777777-333333333-----------7--|
E-555555555-----------x's 3 ---5---|

pause

Riff 2
E--------------------|
B--------------------|
G--------------------|
D---5----------------|
A-7-3-7-5----------5-|
E-5---5-3 x's 8 ---3-|


Riff 2 x's 8


RIff 2 x's 8


Riff 2 x's 8


Riff 2 x's 8


Riff 2 x's 8


-Die Die My Darling-


Intro/Chorus Riff
(x3)
|------------------------------------|
|------------------------------------|
|--4--4--4--4--4--4--4--4------------|
|--4--4--4--4--4--4--4--4--5----4----|
|--2--2--2--2--2--2--2--2--5----4----|
|--------------------------3----2----|
Chorus ending:
|--0~~~~---------------------------------------------------------|
|--0~~~~---------------------------------------------------------|
|--0~~~~--4----------------------------------4-4-4-4-4-4-4-4--4--|
|--2~~~~--4---------------------------4-2~~--2-2-2-2-2-2-2-2--2--|
|--2~~~~--2-2-2-2-2-2-2-2-2-2-2-2-2-2-2-2~~--2-2-2-2-2-2-2-2--2--|
|--0~~~~--------------------------------0~~--0-0-0-0-0-0-0-0--0--|
OR          pm.......................|       pm release.....|
|----------------------------------------------------------------|
|----------------------------------------------------------------|
|--9~~~~--4----------------------------------4-4-4-4-4-4-4-4--4--|
|--9~~~~--4---------------------------4-2~~--2-2-2-2-2-2-2-2--2--|
|--7~~~~--2-2-2-2-2-2-2-2-2-2-2-2-2-2-2-2~~--2-2-2-2-2-2-2-2--2--|
|--0~~~~--------------------------------0~~--0-0-0-0-0-0-0-0--0--|
                                             pm release.....|

Verse
(x6)
|-------------------------------------------------|
|--4----------------------------------------------|
|--4-4-4-4-4-4-4-4-4-4-4-4-4-4-4-4-------7---6----|
|--4-4-4-4-4-4-4-4-4-4-4-4-4-4-4-4-5-----7---6----|
|--2-2-2-2-2-2-2-2-2-2-2-2-2-2-2-2-5-----5---4----|
|----------------------------------3--------------|
|    pm...........................|               |
|-------------------------------------------------|
|-------------------------------------------------|
|--4---4---4---4---4---4---4---4---------7-7-6-6--|
|--4---4---4---4---4---4---4---4---5-----7-7-6-6--|
|--2---2---2---2---2---2---2---2---5-----5-5-4-4--|
|----------------------------------3--------------|

Chorus riff (x2 - w/Chorus ending)

Verse Again (Verse Riff x6)

Chorus riff (x2 - w/Chorus ending)


|---------------------------------------------------------|
|---------------------------------------------------------|
|--4--4--4--4--4--4--4--4--4--4--4--4--4~~~~~~~~~~~~~~~~--|
|--4--4--4--4--4--4--4--4--4--4--4--4--4~~~~~~~~~~~~~~~~--|
|--2--2--2--2--2--2--2--2--2--2--2--2--2~~~~~~~~~~~~~~~~--|
|---------------------------------------------------------|
|                                                         |
|-------------------------------------------------------14|
|-------------------------------------------12-12-12-12-12|
|--4--4--4--4--4--4--4--4--4--4--4--4--4------------------|
|--4--4--4--4--4--4--4--4--4--4--4--4--4------------------|
|--2--2--2--2--2--2--2--2--2--2--2--2--2------------------|
|---------------------------------------------------------|


-Earth A.D-

Riff 1:
E-------------|
B-------------|
G-------------|
D-------------|
A-3--2--5--4--| x's 2
E-------------|

Riff 2:  A              B
E------------------|-----------|
B------------------|-----------|
G------------------|-----------|
D-55-44-66---------|-22-55-77--|
A-33-22-44  x's 4--|-22-33-55--|  x's 2
E------------------|-00--------|

Riff 2: A x's 2 , B

Riff 3:
E--------------------------------------------------|
B--------------------------------------------------|
G--------------------------------------------------|
D-44-55-44-----------44-55-44-------------------2--|
A-22-33-22-33-33-33--22-33-22---33-33-33--------2--|
E----------11-11-11-------------11-11-11 x's 3--0--|

Riff 2: A , B

Riff 2: A x's 2 , B

Riff 3

Riff 3


-Devilock-

Riff 1:
E-----------------|
B-----------------|
G-----------------|
D-2-5-2-5-2--5----|
A-2-3-2-3-2--3--5-|
E-0---0---0-----3-|  x's 3

Riff 2:
E------------------|
B------------------|
G------------------|
D-2--5-----------4-|
A-2--3--5--------2-|
E-0-----3 x's 2 ---|

Riff 1 x's 3

Riff 2 x's 2

Riff 3:
E----------------|
B----------------|
G----------------|
D-2--5-2-5-2-5-2-|
A-2--3-2-3-2-3-2-|
E-0----0---0---0-|

Riff 2 x's 4

Outro:
E---------------------------|
B---------------------------|
G---------------------------|
D-5-4-5-4-5-4-5-4-5-4-5---2-|
A-3-2-3-2-3-2-3-2-3-2-3---2-|
E-------------------------0-|


-Death comes Ripping-

Intro Repeat 4X           ( )= Palm Tute
E-----------------------|   X = Amount Of Times
B-----------------------|
G--------10-99----------|
D-777777-10-99----------|
A-777777-8--77----------|
E-555555----------------|

Verse Repeat 4X
E-----------------------------|
B-----------------------------|
G--------------------10-99----|
D-(7)(7)(7)(7)(7)(7)-10-99----|
A-(7)(7)(7)(7)(7)(7)-8--77----|
E-(5)(5)(5)(5)(5)(5)----------|

Chorus Repeat 4X
E-----------------------------|
B-----------------------------|
G777777-----------------------|
D777777-8-77------------------|
A555555-8-77------------------|
E-------6-55------------------|

-Green Hell-

e|----------------|----------------|----------------|----------------|
b|----------------|----------------|----------------|----------------|
g|----------------|----------------|----------------|----------------|
D|----------------|----------------|----------------|--------55555555|
A|5555555555555555|5555555555555555|5555555555555555|5555555555555555|
E|3333333333333333|3333333333333333|3333333333333333|3333333333333333|
  PM........................................................:

  00:10
                                    02
e|----------------|----------------|----------------|----------------|
b|----------------|----------------|----------------|----------------|
g|----3-----------|----------------|----------------|----------------|
D|3---1-5-55555555|----------------|----------------|--------55555555|
A|1-5---3-55555555|555555555555--55|5555555555555555|5555555555555555|
E|--3-----33333333|3333333333333333|3333333333333333|3333333333333333|
                   PM.......................................:
  00:20
         03               04               05               06
e|----------------|----------------|----------------|----------------|
b|----------------|----------------|----------------|----------------|
g|----3-----------|----3-----------|----3-----------|----3-----------|
D|3---1-5-55555555|3---1-5-55555555|3---1-5-55555555|3---1-5-55555555|
A|1-5---3-55555555|1-5---3-55555555|1-5---3-55555555|1-5---3-55555555|
E|--3-----33333333|--3-----33333333|--3-----33333333|--3-----33333333|

  00:30
         07               08               09               10
e|----------------|----------------|----------------|------------------------|
b|----------------|----------------|----------------|------------------------|
g|7---------------|----------------|----------------|------------------------|
D|7-RING-OUT------|5---------------|2---------------|5-----------------------|
A|5-------<<<<<<<>>>>>>>|3---------------|0---------------|3-----------------|
          PICKSLIDE
  00:40
         11               12               13               14
e|----------------|----------------|----------------|----------------|
b|----------------|----------------|----------------|----------------|
g|----------------|----------------|----------------|----------------|
D|2---------------|5---------------|2---------------|5---------------|
A|2-RING-OUT------|5-RING-OUT------|2-RING-OUT------|5-RING-OUT------|
E|0---------------|3---------------|0---------------|3---------------|

  00:50
        15                                 16               17
e|----------------|----------------|----------------|------------------------|
b|----------------|----------------|----------------|------------------------|
g|----------------|7---------------|----3-----------|----3-------------------|
D|2---------------|7-RING-OUT------|3---1-5-55555555|3---1-5-55555555--------|
A|2-RING-OUT------|5-------<<<<<<<>>>>>>>|--3-----33333333|--3-----33333333--|
                           PICKSLIDE
  01:00
         18               19        20
e|----------------|----------------|----------------|----------------|
b|----------------|----------------|----------------|----------------|
g|----3-----------|----3-----------|----------------|----------------|
D|3---1-5-55555555|3---1-5-55555555|5---------------|----------------|
A|1-5---3-55555555|1-5---3-55555555|5555555555555555|5555555555555555|
E|--3-----33333333|--3-----33333333|3333333333333333|3333333333333333|
                                     PM.............................:
  01:10
  20
e|----------------|----------------|----------------|----------------|
b|----------------|----------------|----------------|----------------|
g|----------------|----------------|----3-----------|----------------|
D|----------------|--------55555555|3---1-5-55555555|----------------|
A|5555555555555555|5555555555555555|1-5---3-55555555|5555555555555555|
E|3333333333333333|3333333333333333|--3-----33333333|3333333333333333|
  PM......................:                          PM.............:
  01:20
                   21                                       22
e|----------------|----------------|----------------|----------------|
b|----------------|----------------|----------------|----------------|
g|----------------|----------------|----------------|----3-----------|
D|----------------|----------------|--------55555555|3---1-5-55555555|
A|5555555555555555|5555555555555555|5555555555555555|1-5---3-55555555|
E|3333333333333333|3333333333333333|3333333333333333|--3-----33333333|
  PM.......................................:
  01:30
         23               24               25               26
e|----------------|----------------|----------------|----------------|
b|----------------|----------------|----------------|----------------|
g|----3-----------|----3-----------|----3-----------|----3-----------|
D|3---1-5-55555555|3---1-5-55555555|3---1-5-55555555|3---1-5-55555555|
A|1-5---3-55555555|1-5---3-55555555|1-5---3-55555555|1-5---3-55555555|
E|--3-----33333333|--3-----33333333|--3-----33333333|--3-----33333333|

  01:40                                                            01:50
         27               28                       29
e|----------------|----------------|--------FEEDBACK|*^^~~^*^~^+++^++|
b|----------------|----------------|----------~^^~^^|*~~^~^~~*^^+^+++|
g|----3-----------|7---------------|-------^~~^^*~*~|TREMOLO^~*^^++++|
D|3---1-5-55555555|7-RING-OUT------|5----------^~^^~|^^*~~^~~++++++5x|
A|1-5---3-55555555|5---------------|5-RING-OUT======|========++++++5x|
E|--3-----33333333|----------------|3-------^^~^~~^~|^~^~~*^~++++++3x|


-Wolfsblood-

Riff 1:
E--------------|
B--------------|
G--------------|
D-2------------|
A-2--5-4-------|
E-0--3-2 x's 4-|

Riff 2:
E------------------|
B------------------|
G------------------|
D-555555-2-2-------|
A-333333-2-2 x's 4-|
E--------0-0-------|

Riff 3:
E----------------|
B----------------|
G----------------|
D----------------|
A-4444444-7777777
E-2222222-5555555 x's 4

Riff 2 x's 4

Riff 3 x's 4

Riff 1 x's 4

Riff 2 x's 2

Riff 3 x's 2

Last:
E----------------------------------|
B----------------------------------|
G----------------------------------|
D-333333333-4444444444-------------|
A-111111111-2222222222-444444444-4-|
E----------------------222222222-2-|
comments
We did not receive enough feedback on this tab! Please rate:
print report bad tab
1 2 3 4 5
1 comment total.
0 reply
punkrockdude2 wrote on May 24 2007, 11:52 am

dude this is called collection 1 and all the songs are in Eb

I want to post or [tab]
guest
You may want to rate the tab now too:
select rating
Please do not post tabs as comments. Select "correction" instead!