Oops, an error
Loading. Please wait.

Project 1950 Tab

3,366 views 6 this week
1 commentread comment
1 2 3 4 5
excellent!
x 2
Autoscroll
+/-
esc
set tempo
stop
Contributor
Difficulty
intermediate
Hey! There's an official Ultimate Guitar app which is ideal
for learning songs when you're away from computer. Get the app
WARNING: You are trying to view
                                    content from Ultimate-Guitar.com
                                    in an unauthorized application,
                                    which is prohibited.

                                    Please use an official Ultimate
                                    Guitar Tabs application for iPhone,
                                    iPad or Android to access legitimate
                                    chords, guitar, bass, and drum tabs
                                    from Ultimate-Guitar.com database.

                                    Type "ultimate guitar tabs" in Apple
                                    App Store's or Android Market's
                                    search to find the application.
Misfits Project 1950 Album
(This Is A Mix Of Other Peoples Tabs I Take No Credit For It)


This Magic Moment

  Intro
e|---------------------------------------------|
B|---------------------------------------------|
G|---------------------------------------------|
D|77777777--4---444----------------------------|
A|55555555--2---222---55555555--7-9-77777777---|
E|--------------------33333333--5-7-55555555---|

  Verse & Chorus
e|-----------------------------------------|
B|-----------------------------------------|
G|-----------------------------------------|
D|77777777--44444444-----------------------|
A|55555555--22222222--55555555--77777777---|
E|--------------------33333333--55555555---|

  Break ("Sweeter Than Wine...")
e|------------------------------------------|
B|------------------------------------------|
G|------------------------------------------|
D|-4444444------------77777777--------------|
A|-2222222--55555555--55555555--777777777---|
E|----------33333333------------555555555---|

 Solo
e|------------------------------------------------------|
B|------------------------------------------------------|
G|------------------------------------------------------|
D|------------------------------------------------------|
A|-5b----5-7-9-7-5-2b----22222------------0-2-0--000000-|
E|-----------------------------3b----3333---------------|

Dream Lover

Intro:
E---------------------|
B---------------------|
G---------------------|
D-5-5555--------------|
A-3-3333-7-7777-------|
E--------5-5555 x's 2-|

Riff 1:
E-------------------------------------------|
B-------------------------------------------|
G-------------------------------------------|
D-5-------5---------------------------------|
A-3-33333-3-333333--7--------7--------------|
E-------------------5-555555-5-55555  x's 2-|
pm  .....   ......    ......   .....

Riff 2:
E-----------------------------------------------------------------------|
B-----------------------------------------------------------------------|
G-----------------------------------------------------------------------|
D------55--------------55-7777777-55555-------33333-------555555--------|
A-1111-33------55-1111-33-5555555-33333-77777-11111-55555-333333-333333-|
E---------1111-33-----------------------55555-------33333---------------|
pm....    ....    ....                                           ......

Riff 1

Riff 2 (end with C chord this time)

Riff 3:
E----------------------------------------------|
B----------------------------------------------|
G----------------------------------------------|
D-777777777-555555555-99999999-----------------|
A-555555555-333333333-77777777--------55555555-|
E------------------------------pause--33333333-|

Riff 1

Riff 2 (C chord)

Riff 4:
E-------------------------------------------|
B-------------------------------------------|
G-------------------------------------------|
D-9--------9--------7--------7--------------|
A-7-777777-7-777777-5-555555-5-555555-------|
E------------------------------------ x's 2-|
pm  ......   ......   ......   ......

Riff 2 (C chord)

End:
E--------------------------------------|
B--------------------------------------|
G--------------------------------------|
D-555555--------555555---------------5-|
A-333333-555555-333333-77777---------3-|
E--------333333--------55555 x's 2-----|

Diana

Riff 1:
E----------------------------------------|
B----------------------------------------|
G----------------------------------------|
D----------------------------------------|
A-6-66-66-4-44-44-8-88-88-9-99-99--------|
E-4-44-44-2-22-22-6-66-66-7-77-77  x's 2-|

Riff 2:
E---------------------------------------|
B---------------------------------------|
G---------------------------------------|
D---------------------------------------|
A-6-------4-------8-------9-------------|
E-4-44-44-2-22-22-6-66-66-7-77-77 x's 2-|
pm  .. ..   .. ..   .. ..   .. ..

Riff 1 x's 3

Riff 2 x's 3

Riff 1 x's 3

Riff 3:
E-----------------------------------------------------------------|
B-----------------------------------------------------------------|
G-----------------------------------------------------------------|
D-----------------------------------------------------------------|
A-8-------88-------6-------66-------8-------88------66-66-6-6-6-6-|
E-6-00000-66-00000-4-00000-44-00000-6-00000-66-0000-44-44-4-4-4-4-|
pm  .....    .....   .....    .....   .....    ....

Riff 2 x's 2

Riff 1 x's 4

Donna

Intro:
E------------------------------------------|
B------------------------------------------|
G------------------------------------------|
D-555555-----------555555-7777-9999--------|
A-333333-7777-5555-333333-5555-7777--------|
E--------5555-3333-----------------  x's 2-|

Riff 1:
E----------------------------------------------------|
B----------------------------------------------------|
G----------------------------------------------------|
D-55555555555-----------------------5-5555-5-5555555-|
A-33333333333-777777-555555 x's 7---3-3333-3-3333333-|
E-------------555555-333333--------------------------|

Riff 2:                              or pickslide here|--------|
E--------------------------------------------------------------|
B--------------------------------------------------------------|
G--------------------------------------------------------------|
D-555555555555-333333333333-55555555555-77777-77777-77-7-7-7-7-|
A-333333333333-111111111111-33333333333-55555-55555-55-5-5-5-5-|
E--------------------------------------------------------------|

Riff 1 x's 3

Riff 2

Riff 1 x's 4

Outro:
E-------------------------------------------------------------------|
B-------------------------------------------------------------------|
G-------------------------------------------------------------------|
D-555555555-3-3-3-3-3-3-55555-----------555555555-3-3-3-3-3-3333--5-|
A-333333333-1-1-1-1-1-1-33333 x's 3 ----333333333-1-1-1-1-1-1111--3-|
E-------------------------------------------------------------------|

Great Balls Of Fire

Riff 1:
E---------------------------------|
B---------------------------------|
G---------------------------------|
D----------------2----------------|
A-5-6-7-8--8-7-6-2--------5-6-7-8-|
E-3-4-5-6--6-5-4-0 x's 2--3-4-5-6-|
pm. . .    . . .          . . .

Riff 2:
E-------------------------------------------|
B-------------------------------------------|
G-------------------------------------------|
D-------------------------------------------|
A-5-6-7-8-88888888-5555555-8888888-555555-8-|
E-3-4-5-6-66666666-3333333-6666666-333333-6-|
pm. . .

Riff 3:
E-----------------------------------|
B-----------------------------------|
G-----------------------------------|
D-------2-22222222---------222222---|
A-8-7-6-2-22222222-5555555-222222-5-|
E-6-5-4-0-00000000-3333333-000000-3-|
pm. . .

Riff 4:
E--------------------------------------------------------|
B--------------------------------------------------------|
G--------------------------------------------------------|
D--------------------------------------------------------|
A-5-6-7-8--------5555555--8888888-5555555-888888-55555-8-|
E-3-4-5-6-x's 3--3333333--6666666-3333333-666666-33333-6-|
pm. . .

Riff 2: Under solo (alternate between A# and G)

Riff 3

Riff 4

End:
E---------|
B---------|
G---------|
D---------|
A-5-6-7-8-|
E-3-4-5-6-|
pm. . .

Latest Flame

riff 1: Part A                 Part B
E---------------------------------------------------------------------|
B---------------------------------------------------------------------|
G---------------------------------------------------------------------|
D------------------------------555555-777777--------------------------|
A-5-55-55-33-------------55555-333333-555555--------------------------|
E-3-33-33-11 x's 6 then--33333--------------  x's 2 then Part A x's 2-|

Riff 2:
E--------------|
B--------------|
G--------------|
D-555555-------|
A-333333-555555
E--------333333  x's 7

Riff 1 All then A x's 2

Riff 2 x's 7

Riff 1 All

Outro:
E-----------------------------------|
B-----------------------------------|
G-----------------------------------|
D-------------55555-77777---------5-|
A-5-55-55-33--33333-55555---------3-|
E-3-33-33-11---------------x's 4----|

Monster Mash

(riff 1)
eb|---------------------------------------------------------------------------|
Bb|---------------------------------------------------------------------------|
Gb|---------------------------------------------------------------------------|
Db|---------------------------------------------------------------------------|
Ab|--7--7-7-7-7-7-7-7-7-7-7-7-7-7--4--4-4-4-4-4-4-4-4-4-4-4-4-4---------------|
Eb|--5--5-5-5-5-5-5-5-5-5-5-5-5-5--2--2-2-2-2-2-2-2-2-2-2-2-2-2---------------|

eb|---------------------------------------------------------------------------|
Bb|---------------------------------------------------------------------------|
Gb|---------------------------------------------------------------------------|
Db|--7--7-7-7-7-7-7-7-7-7-7-7-7-7--9--9-9-9-9-9-9-9-9-9-9-9-9-9---------------|
Ab|--5--5-5-5-5-5-5-5-5-5-5-5-5-5--7--7-7-7-7-7-7-7-7-7-7-7-7-7---------------|
Eb|---------------------------------------------------------------------------|

(riff 2)
eb|---------------------------------------------------------------------------|
Bb|---------------------------------------------------------------------------|
Gb|---------------------------------------------------------------------------|
Db|7-7-7-7-7-7-7-7-7-7-7-7-9-9-9-9-9-9-9-9-9-9-9-9-7-7-7-7-7-7-7-7-7-7-7-7--9-|
Ab|5-5-5-5-5-5-5-5-5-5-5-5-7-7-7-7-7-7-7-7-7-7-7-7-5-5-5-5-5-5-5-5-5-5-5-5--7-|
Eb|---------------------------------------------------------------------------|

(riff 3)
eb|---------------------------------------------------------------------------|
Bb|---------------------------------------------------------------------------|
Gb|---------------------------------------------------------------------------|
Db|---------------------------------------------------------------------------|
Ab|--7--7-7-7-7-7-7-7-7-7-7-7-7-7--4--4-4-4-4-4-4-4-4-4-4-4-4-4---------------|
Eb|--5--5-5-5-5-5-5-5-5-5-5-5-5-5--2--2-2-2-2-2-2-2-2-2-2-2-2-2---------------|
(PM) .  . . . . . . . . . . . . .  .  . . . . . . . . . . . . .

eb|---------------------------------------------------------------------------|
Bb|---------------------------------------------------------------------------|
Gb|---------------------------------------------------------------------------|
Db|--7--7-7-7-7-7-7-7-7-7-7-7-7-7--9------------------------------------------|
Ab|--5--5-5-5-5-5-5-5-5-5-5-5-5-5--7------------------------------------------|
Eb|---------------------------------------------------------------------------|
(PM) .  . . . . . . . . . . . . .

(riff 4)
eb|---------------------------------------------------------------------------|
Bb|---------------------------------------------------------------------------|
Gb|---------------------------------------------------------------------------|
Db|---------------------------------------------------------------------------|
Ab|--7--7-7-7-7-7-7-7-7-7-7-7-7-7--4--4-4-4-4-4-4-4-4-4-4-4-4-4---------------|
Eb|--5--5-5-5-5-5-5-5-5-5-5-5-5-5--2--2-2-2-2-2-2-2-2-2-2-2-2-2---------------|

eb|---------------------------------------------------------------------------|
Bb|---------------------------------------------------------------------------|
Gb|---------------------------------------------------------------------------|
Db|--7--7-7-7-7-7-7-7-7-7-7-7-7-7--9--9-9-9-9-9-9-----------------------------|
Ab|--5--5-5-5-5-5-5-5-5-5-5-5-5-5--7--7-7-7-7-7-7--9--7--5--4-----------------|
Eb|------------------------------------------------7--5--3--2-----------------|


order:
riff 1       4x
riff 2       1x
riff 1       2x
riff 3       1x
riff 1       1x
riff 3       1x
riff 4       3x
end with an A chord

Only Make Believe

(intro)
eb|---------------------------------------------------------------------------|
Bb|---------------------------------------------------------------------------|
Gb|---------------------------------------------------------------------------|
Db|--10:---7:---3:---5:-----------------------------10-10-10-10-10-10-10-10-10|
Ab|--10:---7:---3:---5:--10-10-10-10-10-10-10-10-10-8--8--8--8--8--8--8--8--8-|
Eb|--8::---5:---1:---3:--8--8--8--8--8--8--8--8--8----------------------------|

(intro cont.)
eb|----------------------------------|
Bb|----------------------------------|
Gb|----------------------------------|
Db|--12-12-12-12-12-12-12-12-12-12---|
Ab|--10-10-10-10-10-10-10-10-10-10---|
Eb|----------------------------------|

(verse)3x's
eb|---------------------------------------------------------------------------|
Bb|---------------------------------------------------------------------------|
Gb|-------------------------------------------10-------------12---------------|
Db|--10-----------------------7---------------10-10-10-10-10-12-12-12-12-12---|
Ab|--10-10-10-10-10-10-10-10--7-7-7-7-7-7-7-7-8--8--8--8--8--10-10-10-10-10---|
Eb|--8--8--8--8--8--8--8--8---5-5-5-5-5-5-5-5---------------------------------|

eb|---------------------------------------------------------------------------|
Bb|---------------------------------------------------------------------------|
Gb|--10-------------12-------------------------------10-----------------------|
Db|--10-10-10-10-10-12-12-12-12-12-10----------------10-10-10-10-10-----------|
Ab|--8--8--8--8--8--10-10-10-10-10-10-10-10-10-10-10-8--8--8--8--8------------|
Eb|--------------------------------8--8--8--8--8--8---------------------------|

eb|---------------------------------------------------------------------------|
Bb|---------------------------------------------------------------------------|
Gb|--12-------------10-------------------------------10-----------------------|
Db|--12-12-12-12-12-10-10-10-10-10-10----------------10-10-10-10-10-----------|
Ab|--10-10-10-10-10-8--8--8--8--8--10-10-10-10-10-10-8--8--8--8--8------------|
Eb|--------------------------------8--8--8--8--8--8---------------------------|

eb|---------------------------------------------------------------------------|
Bb|---------------------------------------------------------------------------|
Gb|---------------------------------------------------------------------------|
Db|--10-----------------------------------------------------------------------|
Ab|--10-10-10-10-10-10---5-5-5-5-5-5-5-5--------------------------------------|
Eb|--8--8--8--8--8--8----3-3-3-3-3-3-3-3--------------------------------------|

(outro)
eb|-----------------|
Bb|-----------------|
Gb|-----------------|
Db|--10:---10-------|
Ab|--10:---10-------|
Eb|--8::---8--------|

Runaway

Riff 1:
E---------------------------------------------------------------------------------|
B---------------------------------------------------------------------------------|
G---------------------------------------------------------------------------------|
D---------------------------------------------------------------------------------|
A------------------------------7---------7---------9---------9--------77-77-77777-|
E-5-3--5-3-5-3 x's 4--00000000-5-0000000-5-0000000-7-0000000-7-000000-55-55-55555-|
pm                    ........   .......   .......   .......   ......

Then:
E-----------------------------------------------------------------------|
B-----------------------------------------------------------------------|
G-----------------------------------------------------------------------|
D-----------------------------------------------------------------------|
A-5--------5--------7--------7---------5---------5--------77-77-7777777-|
E-3-000000-3-000000-5-000000-5-0000000-3-0000000-3-000000-55-55-5555555-|
pm  ......   ......   ......   .......   .......   ......

Riff 2: pm'd last 2 times.
E-------------------------|
B-------------------------|
G-------------------------|
D-------------------------|
A-555555555555-33333333333
E-333333333333-11111111111 x's 4

Riff 3:
E-------------------------------------------------|
B-------------------------------------------------|
G-------------------------------------------------|
D-7777777-9999999------------------------9-999999-|
A-5555555-7777777-777777-9999999-777777--7-777777-|
E-----------------555555-7777777-555555-----------|

Riff 4:
E---------------------------------------------------------------------|
B---------------------------------------------------------------------|
G---------------------------------------------------------------------|
D---------------------------------------------------------------------|
A-7777777-5555555-3333333-555555-7777777-5555555-3333333-77-77-777777-|
E-5555555-3333333-1111111-333333-5555555-3333333-1111111-55-55-555555-|

Riff 2

Riff 5:
E---------------------------------------|
B---------------------------------------|
G---------------------------------------|
D-777777-999999-------------------------|
A-555555-777777--777777-999999--------7-|
E----------------555555-777777 x's 4--5-|

Solo:
E------------------------------------------------------------|
B-17-16-14-17-16-14-17-16-14--15-14-13-12~~--12-11-10-9~--5~-|
G------------------------------------------------------------|
D------------------------------------------------------------|
A------------------------------------------------------------|
E------------------------------------------------------------|

E-------------------------------------------------------------------|
B-17-16-14-17-16-14-17-16-14----------------------------------------|
G----------------------------17-18-19~~~--12-13~--10-9-8------------|
D---------------------------------------------------------10-9-8-7~-|
A-------------------------------------------------------------------|
E-------------------------------------------------------------------|

You Belong To Me

Intro:
E-----------------------------------|
B-----------------------------------|
G-----------------------------------|
D-5-5-5-5-5-----------------------5-|
A-3-3-3-3-3--333333-555555--------3-|
E------------111111-333333 x's 2----|

Riff 1:
E-------------------------------------------------------------------------------------------|
B-------------------------------------------------------------------------------------------|
G-------------------------------------------------------------------------------------------|
D-------------------55555555------------------5-----------------------------5555555---------|
A-33333333-55555555-33333333-33333333-5555555-3-3-5555555-33333333-55555555-3333333---------|
E-11111111-33333333----------11111111-3333333---1-3333333-11111111-33333333--------  x's 2--|

Riff 2:
E------------------------------------------------------------------|
B------------------------------------------------------------------|
G------------------------------------------------------------------|
D-------------55555------------55555555555-----------------5555555-|
A-33333333333-33333-5555555555-33333333333-3333333-5555555-3333333-|
E-11111111111-------3333333333-------------1111111-3333333---------|

Riff 1 x's 2 (played under solo)

Riff 2

Riff 1

Riff 3:
E----------------------------------------------|
B----------------------------------------------|
G----------------------------------------------|
D-55555-------------------55555--------------5-|
A-33333-55555-33333-55555-33333-55555-3--5---3-|
E-------33333-11111-33333-------33333-1--3-----|

Intro x's 2

Solo:
E----------------------------------------------------------|
B----------------------------------------------------------|
G----------------------------------------------------------|
D---------------1~-3-1--3~-5-7-5-3-5-----------------------|
A-3~-5-7-5-3-5------------------------1~-3-1---------5-4-3-|
E---------------------------------------------1~-3~--------|

And there you go Misfits fans, the whole Project 1950 album, I'm sure there's probably a 
mistakes but its better than nothing

                 -Rock On, Iowa
comments
We did not receive enough feedback on this tab! Please rate:
print report bad tab
1 2 3 4 5
1 comment total.
0 reply
dubbeat wrote on March 8 2011, 04:59 am

thanks for taking the time to write and share this

I want to post or [tab]
guest
You may want to rate the tab now too:
select rating
Please do not post tabs as comments. Select "correction" instead!