Oops, an error
Loading. Please wait.

Into The Blue Tab

768 views 1 this week
1 commentread comment
1 2 3 4 5
excellent!
x 1
Autoscroll
+/-
esc
set tempo
stop
WARNING: You are trying to view
                                    content from Ultimate-Guitar.com
                                    in an unauthorized application,
                                    which is prohibited.

                                    Please use an official Ultimate
                                    Guitar Tabs application for iPhone,
                                    iPad or Android to access legitimate
                                    chords, guitar, bass, and drum tabs
                                    from Ultimate-Guitar.com database.

                                    Type "ultimate guitar tabs" in Apple
                                    App Store's or Android Market's
                                    search to find the application.
#----------------------------------PLEASE NOTE---------------------------------#
#This file is the author's own work and represents their interpretation of the #
#song. You may only use this file for private study, scholarship, or research. #
#------------------------------------------------------------------------------##
Date: Tue, 12 Dec 95 15:46:20 0000
Subject: TAB: Into The Blue - The Mission

                   Into The Blue - The Mission
                           ----------

Comments/corrections to 
Or see my Mission homepage, http://www.strath.ac.uk/~aeu95317/mission.html


                             Guitar
                             ------

Riff 1
------------------------------------------------------------|
e|-0------------0------------0--0----------0--0----------0--|
B|-0------------0------------0--0----------0--0----------0--|
G|-4-strum...---11-strum...--12-7-strum...-11-6-strum...-6--|
D|-4------------11-----------12-7----------11-6----------6--|
A|-2------------9------------10-5----------9--4----------5--|
E|----------------------------------------------------------|

Riff 2 (Distortion guitar)
-----------------------------------------------------------------|
e|---------------------------------------------------------------|
B|-[Feedback to start]----14-15-17~~~~~-s15-14h15p14-12~~~~------|
G|---------------------------------------------------------------|
D|---------------------------------------------------------------|
A|---------------------------------------------------------------|
E|---------------------------------------------------------------|

Riff 3 (Verse riff)
-----------------------------------|
e|-----2---3---2-------------------|
B|---------------------------------|
G|-2-4---4--------2----------------|
D|---------------------------------|
A|---------------------------------|
E|---------------------------------|

Riff 4
-----------------------------------|
e|-2-3-2-------2---3---2-----------|
B|-------3-------------------------|
G|---------2-4---4-------2---------|
D|---------------------------------|
A|---------------------------------|
E|---------------------------------|

Riff 5
-----------------------------------|
e|-7-------------------------------|
B|---8-7-------(0)...--------------| (Bracket note is actually the
G|-------7-6-7---------------------|  first note of the chorus riff)
D|---------------------------------|
A|---------------------------------|
E|---------------------------------|

Riff 6 (Chorus)
-----------------------------------------------------------------|
e|---------7------5--7-----14--5---------------------------------|
B|-0--7-------7--------------------------------------------------|
G|---------------------------------------------------------------|
D|---------------------------------------------------------------|
A|---------------------------------------------------------------|
E|---------------------------------------------------------------|

Riff 7 (Chorus - Clean guitar, 12 string)
-----------------------------------------------------------------|
e|-2---------------2-------------5------------4------------------|
B|-5---------------2-------------5------------7------------------|
G|-4--strum...-----4--strum...---7--strum...--6--strum...--------|
D|-4---------------4-------------7------------6------------------|
A|(2)-------------(2)-----------(5)----------(4)-----------------|
E|---------------------------------------------------------------|
 | B sus4          F# sus4       D sus2       C#sus 4

Riff 8 (Solo - 1st part)
-----------------------------------------------------------------|
e|-12^--12^--12^--12^--12^---------------------------------------|
B|--------------------------12-10--------------------------------|
G|--------------------------------11~~~--9-------9~~~\-----------|
D|-----------------------------------------11-12-----------------|
A|---------------------------------------------------------------|
E|---------------------------------------------------------------|

Riff 9 (Solo - 2nd part)
-----------------------------------------------------------------|
e|-12--15-10-12~~-15-10-12~~-------------------------------------|
B|----------------------------------10-12~~~-10----------10~~~---|
G|-----------------------------9-11-------------12-11-12---------|
D|---------------------------9-----------------------------------|
A|---------------------------------------------------------------|
E|---------------------------------------------------------------|

e|-----*Toms start here------------------------------------------|
B|-----15----12--------------------------------------------------|
G|--------14----14----14-----------------------------------------|(Start of next riff)
D|-----------------16----16-14-16-14-12---------(14~~-12~~)------|
A|--------------------------------------16-14-16-----------------|
E|---------------------------------------------------------------|

Riff 10 (Solo - 3rd part)
-----------------------------------------------------------------|
e|---------------------------------------------------------------|
B|-----------------------------------14-15-17~~~--14h15p14-12~~--|
G|---------------------------------------------------------------|
D|-14~~--12~~----------------------------------------------------|
A|---------------------------------------------------------------|
E|---------------------------------------------------------------|

Riff 11 (Ending)
-----------------------------------------------------------------|
e|---------------------------------xxxx--------------------------|
B|-5----3----2--0------------2--3--0000--------------------------|
G|------------------2--0-----------------------------------------|
D|------------------------4--------------------------------------|
A|---------------------------------------------------------------|
E|---------------------------------------------------------------|

                              Bass
                              ----
Riff 1 (Played by piano on LP version)
-----------------------------------|
G|---------------------------------|
D|-4-------------------------------|
A|-2-------------------------------|
E|---------------------------------|

Riff 2
------------------------------------|
G|----------------------------------|
D|---------0---------------0--------|
A|-2-0-2-0---4-2-0-2-0-2-0-----4----|
E|----------------------------------|

Riff 3
------------------------------------|
G|----------------------------------|
D|---------0---------------0--------|
A|-2-0-2-0---4-2-0-2-0-2-0---4-2-0--|
E|----------------------------------|

Riff 4 (Chorus)
--------------------------------------------------------------------|
G|------------------------------------------------------------------|
D|-----------------4-4-4-4-4-4-4-4-0-0-0-0-0-0-2-0------------------|
A|-2-2-2-0-2-0-2-0---------------------------------4-4-4-4-4-4-5-4--|
E|------------------------------------------------------------------|
 | Bsus 4          F#sus 4         Dsus 2          C#sus 4

Riff 5 (Solo - 1st part)
-----------------------------------------------------------------|
G|---------------------------------------------------------------|
D|-2---0---------------------------------------------------------|
A|----------4---2---0-----------------------0-0-0-0-0-0-0-0------|
E|-----------------------3--2-2-2-2-2-2-2-2----------------------|

Riff 6 (Solo - 2nd part)
-----------------------------------------------------------------------|
G|---------------------------------------------------------------------|
D|-2--0----------------------------------------------------------------|
A|--------4--2--0---------------------0-0-0-0-0-0-0-0------------------|
E|-----------------3--2-2-2-2-2-2-2-2-----------------0-0-0-0-0-0-0-0--|
                      *Toms start here

Riff 7 (Ending)
-----------------------------------------------------------------|
G|---------------------------------------------------------------|
D|-2---0---------------------------------------------------------|
A|----------4---2---0-----------4---5--22222---------------------|
E|-----------------------3--2----------xxxxx(with snare drum)----|

                               ---

Notes:  Listen to the LP for the strum pattern for riffs 1 & 7 (the
12 string guitar parts).
     There may be a few wrong notes in the solo but it sounds OK
the way it is:)

                               ---

How to play it: (Guitar 1 - lead guitar, Guitar 2 - 12 string)

         |        Intro        |    1st Verse    | Chorus |         |
Guitar 1 |       2             | 3   3   4   3  5| 6    6 |         |
Guitar 2 |     1   1   1   1   |                 | 7    7 | 1   1   |
Bass     | 1       1   2 2 2 2 | 2 2 2 2 2 2 2 2 | 4    4 | 2 2 2 2 |

         |     2nd Verse   | Chorus |      Solo       |
Guitar 1 | 3 3 3 3 4 3 3 35| 6    6 | 8   9 | 10      |
Guitar 2 |                 | 7    7 |       | 1   1   |
Bass     | 3 3 3 3 3 3 3 3 | 4    4 | 5   6 | 3 3 3 3 |

         |     3rd Verse   | Chorus | Chorus | Ending
Guitar 1 | 3 3 3 3 4 3 3 35| 6    6 | 6    6 | 11
Guitar 2 |                 | 7    7 | 7    7 |
Bass     | 3 3 3 3 3 3 3 3 | 4    4 | 4    4 | 7


Lyrics
------
Mumbo jumbo, listen to the whispers of madness
We have climbed mountains of dust
We have seen gold gather rust
Hocus pocus the stampede of my heart
We have sailed on stars through the air
We have flown on the wings of a prayer
Into the blue, only with you
Into the blue, only with you, into the blue

Gasoline rainbows swimming in the puddles in the street
Whichever way the wind blows we've got the whole damn
World crawling at our feet
Laughing canyons and everglades
Candle flames and razor blades
Dancing through the poppyfields, hand in hand we cascade
Into the blue, only with you
Into the blue, only with you, into the blue

There's a singing dwarf on the streets of New York
There's a shuffling man with plastic on his head
There's a preacher woman crying in the traffic
Crying for the living, crying for the dead
The waste of it all, the waste of it all
And there's more at stake than we could ever know
'Cos when we're together we always fall

Into the blue, only with you
Into the blue, only with you, into the blue
comments
We did not receive enough feedback on this tab! Please rate:
print report bad tab
1 2 3 4 5
1 comment total.
0 reply
[a]MUSE wrote on April 25 2004, 12:00 am

Great work!! I'm really happy now!! :D Thanks!

I want to post or [tab]
guest
You may want to rate the tab now too:
select rating
Please do not post tabs as comments. Select "correction" instead!