Oops, an error
Loading. Please wait.

Make Me A Pallet On The Floor Tab

ver1
ver1

Whole song

Interactive

More versions @911Tabs.com
10,392 views 90 this week
no commentswrite comment
1 2 3 4 5
excellent!
x 2
Autoscroll
+/-
esc
set tempo
stop
Contributor
Tabbers playing skills
advanced
Hey! There's an official Ultimate Guitar app which is ideal
for learning songs when you're away from computer. Get the app
WARNING: You are trying to view
                                    content from Ultimate-Guitar.com
                                    in an unauthorized application,
                                    which is prohibited.

                                    Please use an official Ultimate
                                    Guitar Tabs application for iPhone,
                                    iPad or Android to access legitimate
                                    chords, guitar, bass, and drum tabs
                                    from Ultimate-Guitar.com database.

                                    Type "ultimate guitar tabs" in Apple
                                    App Store's or Android Market's
                                    search to find the application.
----------------------------------------------------------------------------
           Make Me A Pallet On Your Floor - Mississippi John Hurt
----------------------------------------------------------------------------

Tabbed by: Dave S. 
Email: prime-prine@hotmail.com

Tuning: Standard

                                                  

E||---------------------|-----------------------|-----------------------|
B||-----------1---------|-------3--1------------|-------3--1------------|
G||----------------3----|-----------------------|------------------2----|
D||----------------2----|-------3----------3----|-------3----------3----|
A||-----------3---------|-----------------------|-----------------------|
E||---------------------|--1----------1---------|--1----------1---------|

    
-------3--------3--------|--3-----0-----0----------|-----------------------|
----------1-----------1--|-----1-----1-----3-------|-------3--1------------|
--0----------------------|-------------------------|-----------------------|
-------2-----------2-----|--------2-----------2----|-------3----------3----|
--3----------------------|--3----------------------|-----------------------|
-------------3-----------|--------------3----------|--1----------1---------|

   
-----------------------|-------3--------3--------|--0-----0-----0--3-------|
-------3--1------------|----------------------1--|-----1-----1-------------|
------------------2----|--0----------------------|-------------------------|
-------3----------3----|-------2-----------2-----|--------2-----------2----|
-----------------------|--3----------3-----------|--3----------------------|
--1----------1---------|----------3--------------|--------------3----------|

    
--0-------0--------0-----|-------------0----------|-----------------------|
----------------0-----0--|----------0-----3-------|-------3--1------------|
-------------------------|-----0h1----------------|------------------2----|
-------2-----------2-----|-------2-----------2----|-------3----------3----|
-------------------------|------------------------|-----------------------|
--0----------0-----------|--0----------0----------|--1----------1---------|

  
------------------------|--0-------3------------|--------0-----0-----------|
-------3--1-------3-----|-----------------------|-----0-----0-----3-----1--|
------------------------|-----------------------|--------------------------|
-------3-------------3--|-------2----------2----|--------0-----------0-----|
------------------------|--3--------------------|--------------------------|
--1----------1----------|-------------3---------|--3-----------3-----------|

    
------------------------------------|-----------------------|
------------------------------------|-------3--1------------|
-----0-----0-----------0-------3----|-----------------------|
--------2----------------------2----|-------3----------3----|
--3-----------3-----2-----3---------|-----------------------|
-----------------3------------------|--1----------1---------|

    
-----------------------|-------3--------3--------|--3-----0-----0----------|
-------3--1------------|----------1-----------1--|-----1-----1-----3-------|
------------------2----|--0----------------------|-------------------------|
-------3----------3----|-------2-----------2-----|--------2-----------2----|
-----------------------|--3----------------------|--3----------------------|
--1----------1---------|-------------3-----------|--------------3----------|

   
-----------------------|-----------------------|-------3--------3--------|
-------3--1------------|-------3--1------------|----------------------1--|
-----------------------|------------------2----|--0----------------------|
-------3----------3----|-------3----------3----|-------2-----------2-----|
-----------------------|-----------------------|--3----------3-----------|
--1----------1---------|--1----------1---------|----------3--------------|

    
--0-----0-----0--3-------|--0-------0--------0-----|-------------0----------|
-----1-----1-------------|----------------0-----0--|----------0-----3-------|
-------------------------|-------------------------|-----0h1----------------|
--------2-----------2----|-------2-----------2-----|-------2-----------2----|
--3----------------------|-------------------------|------------------------|
--------------3----------|--0----------0-----------|--0----------0----------|

    
-----------------------|------------------------|--0-------3------------|
-------3--1------------|-------3--1-------3-----|-----------------------|
------------------2----|------------------------|-----------------------|
-------3----------3----|-------3-------------3--|-------2----------2----|
-----------------------|------------------------|--3--------------------|
--1----------1---------|--1----------1----------|-------------3---------|

     
--------0-----0-----------|------------------------------------|
-----0-----0-----3-----1--|------------------------------------|
--------------------------|-----0-----0-----------0-------3----|
--------0-----------0-----|--------2----------------------2----|
--------------------------|--3-----------3-----2-----3---------|
--3-----------3-----------|-----------------3------------------|

   
-----------------------|-----------------------|-------3--------3--------|
-------1--1------------|-------3--1------------|-------------1--------1--|
--2---------------2----|------------------2----|--0-------0--------------|
-------3----------3----|-------3----------3----|-------2-----------------|
-----------------------|-----------------------|--3----------------------|
--1----------1---------|--1----------1---------|-------------------3-----|

   
--3-----3-----0----------|-----------------------|-----------------------|
-----1-----1-----3-------|-------3--1------------|-------3--1------------|
-------------------------|------------------2----|------------------2----|
--2-----------------2----|-------3----------3----|-------3----------3----|
--------------3----------|-----------------------|-----------------------|
--------3----------------|--1----------1---------|--1----------1---------|

  
------3--------3--------|--3-----3--3-----3-------|--0-------0--------0-----|
------------1--------1--|-----1-------------------|----------------0-----0--|
-0-------0--------------|-------------------------|-------------------------|
------2-----------------|--2-----------2----------|-------2-----------2-----|
-3----------------------|--------3----------------|-------------------------|
------------------3-----|--------------------3----|--0----------0-----------|

   
-------------0----------|-----------------------|------------------------|
----------0-----3-------|-------3--1------------|-------3--1-------3-----|
-----0h1----------------|------------------2----|------------------------|
-------2-----------2----|-------3----------3----|-------3-------------3--|
------------------------|-----------------------|------------------------|
--0----------0----------|--1----------1---------|--1----------1----------|

  
--0-------3------------|--------0-----0-----------|
-----------------------|-----0-----0-----3-----1--|
-----------------------|--------------------------|
-------2----------2----|--------0-----------0-----|
--3--------------------|--------------------------|
-------------3---------|--3-----------3-----------|

   
------------------------------------|-----------------------|
------------------------------------|-------3--1------------|
-----0-----0-----------0-------3----|-----------------------|
--------2----------------------2----|-------3----------3----|
--3-----------3-----2-----3---------|-----------------------|
-----------------3------------------|--1----------1---------|

   
-----------------------|-------3--------3--------|--3-----0-----0----------|
-------3--1------------|----------1-----------1--|-----1-----1-----3-------|
------------------2----|--0----------------------|-------------------------|
-------3----------3----|-------2-----------2-----|--------2-----------2----|
-----------------------|--3----------------------|--3----------------------|
--1----------1---------|-------------3-----------|--------------3----------|

  
-----------------------|-----------------------|-------3--------3--------|
-------3--1------------|-------3--1------------|----------------------1--|
-----------------------|------------------2----|--0----------------------|
-------3----------3----|-------3----------3----|-------2-----------2-----|
-----------------------|-----------------------|--3----------3-----------|
--1----------1---------|--1----------1---------|----------3--------------|

    
--0-----0-----0--3-------|--0-------0--------0-----|-------------0----------|
-----1-----1-------------|----------------0-----0--|----------0-----3-------|
-------------------------|-------------------------|-----0h1----------------|
--------2-----------2----|-------2-----------2-----|-------2-----------2----|
--3----------------------|-------------------------|------------------------|
--------------3----------|--0----------0-----------|--0----------0----------|

    
-----------------------|------------------------|--0-------3------------|
-------3--1------------|-------3--1-------3-----|-----------------------|
------------------2----|------------------------|-----------------------|
-------3----------3----|-------3-------------3--|-------2----------2----|
-----------------------|------------------------|--3--------------------|
--1----------1---------|--1----------1----------|-------------3---------|

    
--------0-----0-----------|------------------------------------|
-----0-----0-----3-----1--|------------------------------------|
--------------------------|-----0-----0-----------0-------3----|
--------0-----------0-----|--------2----------------------2----|
--------------------------|--3-----------3-----2-----3---------|
--3-----------3-----------|-----------------3------------------|

  
-----------------------|-----------------------|-------3--------3--------|
-------1--1------------|-------3--1------------|-------------1--------1--|
--2---------------2----|------------------2----|--0-------0--------------|
-------3----------3----|-------3----------3----|-------2-----------------|
-----------------------|-----------------------|--3----------------------|
--1----------1---------|--1----------1---------|-------------------3-----|

    
--3-----3-----0----------|-----------------------|-----------------------|
-----1-----1-----3-------|-------3--1------------|-------3--1------------|
-------------------------|------------------2----|------------------2----|
--2-----------------2----|-------3----------3----|-------3----------3----|
--------------3----------|-----------------------|-----------------------|
--------3----------------|--1----------1---------|--1----------1---------|

  
------3--------3--------|--3-----3--3-----3-------|--0-------0--------0-----|
------------1--------1--|-----1-------------------|----------------0-----0--|
-0-------0--------------|-------------------------|-------------------------|
------2-----------------|--2-----------2----------|-------2-----------2-----|
-3----------------------|--------3----------------|-------------------------|
------------------3-----|--------------------3----|--0----------0-----------|

  
-------------0----------|-----------------------|------------------------|
----------0-----3-------|-------3--1------------|-------3--1-------3-----|
-----0h1----------------|------------------2----|------------------------|
-------2-----------2----|-------3----------3----|-------3-------------3--|
------------------------|-----------------------|------------------------|
--0----------0----------|--1----------1---------|--1----------1----------|

  
--0-------3------------|--------0-----0-----------|
-----------------------|-----0-----0-----3-----1--|
-----------------------|--------------------------|
-------2----------2----|--------0-----------0-----|
--3--------------------|--------------------------|
-------------3---------|--3-----------3-----------|

        
-------------------------------0----||
-------------------------------1----||
-----0-----0-----------0-------0----||
--------2----------------------2----||
--3-----------3-----2-----3----3----||
-----------------3------------------||

| /  slide up
| \  slide down
| h  hammer-on
| p  pull-off
| ~  vibrato
| +  harmonic
| x  Mute note
===========================================================================
comments
We did not receive enough feedback on this tab! Please rate:
print report bad tab
1 2 3 4 5
I want to post or [tab]
guest
You may want to rate the tab now too:
select rating
Please do not post tabs as comments. Select "correction" instead!