Oops, an error
Loading. Please wait.

Aishiteru Kara Hajimeyou Tab

1,921 views 9 this week
no commentswrite comment
1 2 3 4 5
please rate
Autoscroll
+/-
esc
set tempo
stop
Difficulty
Tuning
novice
C# G# C# F# A# D#
WARNING: You are trying to view
                                    content from Ultimate-Guitar.com
                                    in an unauthorized application,
                                    which is prohibited.

                                    Please use an official Ultimate
                                    Guitar Tabs application for iPhone,
                                    iPad or Android to access legitimate
                                    chords, guitar, bass, and drum tabs
                                    from Ultimate-Guitar.com database.

                                    Type "ultimate guitar tabs" in Apple
                                    App Store's or Android Market's
                                    search to find the application.
Title   :Aishiteru Kara Hajimeyou
Auteur  :Miyavi

First tab so be nice,, greetz Hipemotic

Tuning: C# F# B E G# C#

I  played 3x
E ----3---------------3-------------3------------3-----------------------------------|
B -------3---------------3-------------3------------3--------------------------------|
G -----------0---------------0------------0------------0-----------------------------|
D -------------------------------0------------2--------------------------------------|
A -2---------------3-----------------------------------------------------------------|
E -----------------------------------------------------------------------------------|

E ----3---------------3-------------3------------3-----------------------------------|
B -------3---------------3-------------3------------3--------------------------------|
G -----------0---------------0------------0------------0-----------------------------|
D -------------------------------0---------------------------------------------------|
A -2---------------3-----------------------------------------------------------------|
E --------------------------------------------3--------------------------------------|


II
E ----3---------------3-------------3------------3-----------------------------------|
B -------3---------------3-------------3------------3--------------------------------|
G -----------0---------------0------------0------------0-----------------------------|
D -------------------------------0------------2--------------------------------------|
A -2---------------3-----------------------------------------------------------------|
E -----------------------------------------------------------------------------------|

E ----3---------------3-------------3------------------------------------------------|
B -------3---------------3-------------3------------3--------------------------------|
G -----------0---------------0------------0---------0--------------------------------|
D -------------------------------0------------------0--------------------------------|
A -2---------------3--------------------------------2---x-x-x------------------------|
E --------------------------------------------3-----3--------------------------------|

E -----------------------------------------------------------------------------------|
B -3--3---------3--2--------3--3--------3-3--------3----------3--3--------3--3-------|
G -0--0---------0--0--------0--0--x-x-x-0-0--x-x-x-0----------0--0--------0--0-------|
D -0--0---------2--2--x-x-x-0--0--------2-2--------0----------2--2--x-x-x-0--0-x-x-x-|
A -2--2--x-x-x--3--3-------------------------------2---x--x-x-3--3-------------------|
E -3--3--------------------------------------------3---------------------------------|

E -----------------------------------------------------------------------------------|
B -3--3---------3--2--------3--3--------3-3------------------------------------------|
G -0--0---------0--0--------0--0--x-x-x-0-0------------------------------------------|
D -0--0---------2--2--x-x-x-0--0--------2-2------------------------------------------|
A -2--2--x-x-x--3--3-----------------------------------------------------------------|
E -3--3------------------------------------------------------------------------------|

E -----------------------------------------------------------------------------------|
B -3--3---------3--2--------3--3---------3--3--3--3----------------------------------|
G -0--0---------0--0--------0--0--x-x-x--0--0--0--0----------------------------------|
D -0--0---------2--2--x-x-x-0--0---------0--0--0--0----------------------------------|
A -2--2--x-x-x--3--3---------------------2--2--2--2----------------------------------|
E -3--3----------------------------------3--3--3--3----------------------------------|

E -----------------------------------------------------------------------------------|
B -3--3---------3--2--------3--3--------3-3------------------------------------------|
G -0--0---------0--0--------0--0--x-x-x-0-0--x-x-------------------------------------|
D -0--0---------2--2--x-x-x-0--0--------2-2------------------------------------------|
A -2--2--x-x-x--3--3-----------------------------------------------------------------|
E -3--3------------------------------------------------------------------------------|

E ----3---------------3-------------3------------3-----------------------------------|
B -------3---------------3-------------3------------3--------------------------------|
G -----------0---------------0------------0------------0-----------------------------|
D -------------------------------0------------2--------------------------------------|
A -2---------------3-----------------------------------------------------------------|
E -----------------------------------------------------------------------------------|

E ----3---------------3-------------3------------3-----------------------------------|
B -------3---------------3-------------3------------3--------------------------------|
G -----------0---------------0------------0------------0-----------------------------|
D -------------------------------0---------------------------------------------------|
A -2---------------3-----------------------------------------------------------------|
E --------------------------------------------3--------------------------------------|

E ----3---------------3-------------3------------3-----------------------------------|
B -------3---------------3-------------3------------3--------------------------------|
G -----------0---------------0------------0------------0-----------------------------|
D -------------------------------0------------2--------------------------------------|
A -2---------------3-----------------------------------------------------------------|
E -----------------------------------------------------------------------------------|

E ----3---------------3-------------3-------------3-----------------------------------|
B -------3---------------3-------------3----------3-----------------------------------|
G -----------0---------------0------------0-------0--x-x------------------------------|
D -------------------------------0----------------------------------------------------|
A -2---------------3------------------------------------------------------------------|
E --------------------------------------------3---------------------------------------|

III Played 4x
E ----3---------------3-------------3------------3-----------------------------------|
B -------3---------------3-------------3------------3--------------------------------|
G -----------0---------------0------------0------------0-----------------------------|
D -------------------------------0------------2--------------------------------------|
A -2---------------3-----------------------------------------------------------------|
E -----------------------------------------------------------------------------------|

E ----3---------------3-------------3------------3-----------------------------------|
B -------3---------------3-------------3------------3--------------------------------|
G -----------0---------------0------------0------------0-----------------------------|
D -------------------------------0---------------------------------------------------|
A -2---------------3-----------------------------------------------------------------|
E --------------------------------------------3--------------------------------------|

IV
E ----3--3--3--3--3--3--3--5--5--5--5--5--5--5--5--5----------------------------------|
B ----3--3--3--3--3--3--3-----3--3--3--3--3--3--3--3---------3--3----------3--3-------|
G -x--0--0--0--0--0--0--0-----0--0--0--0--0--0--0--0--x-x----0--0----------0--0-------|
D ----0--0--0--0--0--0--0-----0--0--0--0--0--0--0--0---------0--0----------2--2-x-x-x-|
A -----------------------------------------------------------2--2---x-x-x--3--3-------|
E -----------------------------------------------------------0--0---------------------|

E ---------------------------------------------------------------------3--3--3--5--5-|
B -3--3--------3--3----------3--3----------3--3----------3--3----------3--3--3--5--5-|
G -0--0--x-x-x-0--0--x--x-x--0--0----------0--0----------0--0----------0--0--0-----0-|
D -0--0--------2--2----------0--0----------2--2--x--x-x--0--0--x--x-x--0--0----------|
A ---------------------------2--2--x--x-x--3--3------------------------2--2----------|
E ---------------------------3--3--------------------------------------3--3----------|

E -----------------------------------------------------------------------------------|
B -3--3----------3--3---------3--3---------3--3--------------------------------------|
G -0--0----------0--0---------0--0---------0--0--x--x--------------------------------|
D -0--0----------2--2--x--x-x-0--0--x--x-x-2--2--------------------------------------|
A -2--2--x--x-x--3--3----------------------------------------------------------------|
E -0--0------------------------------------------------------------------------------|

V
E ----3---------------3-------------3------------3-----------------------------------|
B -------3---------------3-------------3------------3--------------------------------|
G -----------0---------------0------------0------------0-----------------------------|
D -------------------------------0------------2--------------------------------------|
A -2---------------3-----------------------------------------------------------------|
E -----------------------------------------------------------------------------------|

E ----3---------------3-------------3------------3-----------------------------------|
B -------3---------------3-------------3------------3--------------------------------|
G -----------0---------------0------------0------------0-----------------------------|
D -------------------------------0---------------------------------------------------|
A -2---------------3-----------------------------------------------------------------|
E --------------------------------------------3--------------------------------------|

E -^3--3------3------3-------7-------10----------------------------------------------|
B -|3----3------3------3---8---8--------12-------------------------------------------|
G -|0------0------0------0-----------------------------------------------------------|
D -|0-----------------------------0---------0----------------------------------------|
A -|2--------------------------------------------------------------------------------|
E -|3------------------------------------------3--------3----------------------------|
comments
We did not receive enough feedback on this tab! Please rate:
print report bad tab
1 2 3 4 5
I want to post or [tab]
guest
You may want to rate the tab now too:
select rating
Please do not post tabs as comments. Select "correction" instead!