Oops, an error
Loading. Please wait.

I Love You I Love You I Love You And I Hate You Tab

ver1
ver1

Whole song

Interactive

More versions @911Tabs.com
1,045 views 12 this week
1 commentread comment
1 2 3 4 5
excellent!
x 2
Autoscroll
+/-
esc
set tempo
stop
Contributor
Difficulty
Tuning
intermediate
D# G# C# F# A# D#
Hey! There's an official Ultimate Guitar app which is ideal
for learning songs when you're away from computer. Get the app
WARNING: You are trying to view
                                    content from Ultimate-Guitar.com
                                    in an unauthorized application,
                                    which is prohibited.

                                    Please use an official Ultimate
                                    Guitar Tabs application for iPhone,
                                    iPad or Android to access legitimate
                                    chords, guitar, bass, and drum tabs
                                    from Ultimate-Guitar.com database.

                                    Type "ultimate guitar tabs" in Apple
                                    App Store's or Android Market's
                                    search to find the application.
Just took it from GTP. 
FULL step down - DGCFAD tune.


              I love you, I love you, I love you, and I hate you                


                                                                          MIYAVI
Miyavi



     E  E  E  E  E  E  E  E     E  E  E  E  E  E  E  E   
D||--------------------------|--------------------------|
A||--------------------------|--------------------------|
F||--------------------------|--------------------------|
C||--x--------x--------x-----|-----x--------x--------x--|
G||--x--x--x--x--x--x--x--x--|--x--x--x--x--x--x--x--x--|
D||--------------------------|--------------------------|


  E  E  E  E  E  E  E  E     E  E  E  E  E  E  E  E   
--------------------------|--------------------------|
--------------------------|--------------------------|
--------------------------|--------------------------|
--x--------x--------x-----|--x--------x--------x-----|
--x--x--x--x--x--x--x--x--|--x--x--x--x--x--x--x--x--|
--------------------------|--------------------------|


  PM PM    PM    PM PM PM    PM PM    PM    PM PM PM  
  E  E  E  E  E  E  E  E     E  E  E  E  E  E  E  E   
--------------------------|--------------------------|
--------------------------|--------------------------|
--------------------------|--------------------------|
--------3-----3-----------|--------3-----2-----------|
--1--1--1--1--1--1--1--3--|--3--3--3--3--3--3--3--5--|
--------------------------|--------------------------|


  PM PM    PM PM    PM PM       PM PM    PM    PM PM  
  E  E  E  E  E  E  E  E     E  E  E  E  E  E  E  E   
--------------------------|--------------------------|
--------------------------|--------------------------|
--------------------------|--------------------------|
--------3--------5--------|--6--------5-----3--------|
--5--5--5--5--5--5--5--5--|--5--5--5--5--5--5--5--1--|
--------------------------|--------------------------|


  PM PM    PM    PM PM PM    PM PM    PM    PM PM PM  
  E  E  E  E  E  E  E  E     E  E  E  E  E  E  E  E   
--------------------------|--------------------------|
--------------------------|--------------------------|
--------------------------|--------------------------|
--------3-----3-----------|--------3-----2-----------|
--1--1--1--1--1--1--1--3--|--3--3--3--3--3--3--3--5--|
--------------------------|--------------------------|


  PM PM    PM PM    PM PM                               
                                           |--3--|      
  E  E  E  E  E  E  E  E     E  E  E  Q    E  E  E  E   
--------------------------|--5--5--5--5----5--5--5-----|
--------------------------|--6--6--6--5----5--5--5-----|
--------------------------|----------------------------|
--------3--------5--------|----------------------------|
--5--5--5--5--5--5--5--5--|----------------------------|
--------------------------|----------------------------|


  PM PM    PM    PM PM PM    PM PM    PM    PM PM PM  
  E  E  E  E  E  E  E  E     E  E  E  E  E  E  E  E   
--------------------------|--------------------------|
--------------------------|--------------------------|
--------------------------|--------------------------|
--------3-----3-----------|--------3-----2-----------|
--1--1--1--1--1--1--1--3--|--3--3--3--3--3--3--3--5--|
--------------------------|--------------------------|


  PM PM    PM PM    PM PM       PM PM    PM    PM PM  
  E  E  E  E  E  E  E  E     E  E  E  E  E  E  E  E   
--------------------------|--------------------------|
--------------------------|--------------------------|
--------------------------|--------------------------|
--------3--------5--------|--6--------5-----3--------|
--5--5--5--5--5--5--5--5--|--5--5--5--5--5--5--5--1--|
--------------------------|--------------------------|


  PM PM    PM    PM PM PM    PM PM    PM    PM PM PM                      
  E  E  E  E  E  E  E  E     E  E  E  E  E  E  E  E     W                 
--------------------------|--------------------------|-------------------|
--------------------------|--------------------------|-------------------|
--------------------------|--------------------------|-------------------|
--------3-----3-----------|--------3-----2--------3--|-------------------|
--1--1--1--1--1--1--1--3--|--3--3--3--3--3--3--3--5--|-------------------|
--------------------------|--------------------------|-------------------|


                          PM PM    PM    PM PM PM    PM PM    PM    PM PM PM  
  H        Q     Q        E  E  E  E  E  E  E  E     E  E  E  E  E  E  E  E   
-----------------------|--------------------------|--------------------------|
-----------------------|--------------------------|--------------------------|
-----------------------|--------------------------|--------------------------|
-----------------x\----|--------3-----3-----------|--------3-----2-----------|
-----------------x\----|--1--1--1--1--1--1--1--3--|--3--3--3--3--3--3--3--5--|
-----------------------|--------------------------|--------------------------|


  PM PM    PM PM    PM PM       PM PM    PM    PM PM  
  E  E  E  E  E  E  E  E     E  E  E  E  E  E  E  E   
--------------------------|--------------------------|
--------------------------|--------------------------|
--------------------------|--------------------------|
--------3--------5--------|--6--------5-----3--------|
--5--5--5--5--5--5--5--5--|--5--5--5--5--5--5--5--1--|
--------------------------|--------------------------|


  PM PM    PM    PM PM PM    PM PM    PM    PM PM PM  
  E  E  E  E  E  E  E  E     E  E  E  E  E  E  E  E   
--------------------------|--------------------------|
--------------------------|--------------------------|
--------------------------|--------------------------|
--------3-----3-----------|--------3-----2-----------|
--1--1--1--1--1--1--1--3--|--3--3--3--3--3--3--3--5--|
--------------------------|--------------------------|


  PM PM    PM PM    PM PM                               
                                           |--3--|      
  E  E  E  E  E  E  E  E     E  E  E  Q    E  E  E  E   
--------------------------|--5--5--5--5----5--5--5-----|
--------------------------|--6--6--6--5----5--5--5-----|
--------------------------|----------------------------|
--------3--------5--------|----------------------------|
--5--5--5--5--5--5--5--5--|----------------------------|
--------------------------|----------------------------|


  PM PM    PM    PM PM PM    PM PM    PM    PM PM PM  
  E  E  E  E  E  E  E  E     E  E  E  E  E  E  E  E   
--------------------------|--------------------------|
--------------------------|--------------------------|
--------------------------|--------------------------|
--------3-----3-----------|--------3-----2-----------|
--1--1--1--1--1--1--1--3--|--3--3--3--3--3--3--3--5--|
--------------------------|--------------------------|


  PM PM    PM PM    PM PM       PM PM    PM    PM PM  
  E  E  E  E  E  E  E  E     E  E  E  E  E  E  E  E   
--------------------------|--------------------------|
--------------------------|--------------------------|
--------------------------|--------------------------|
--------3--------5--------|--6--------5-----3--------|
--5--5--5--5--5--5--5--5--|--5--5--5--5--5--5--5--1--|
--------------------------|--------------------------|


  PM PM    PM    PM PM PM    PM PM    PM    PM PM     
  E  E  E  E  E  E  E  E     E  E  E  E  E  E  E  E   
--------------------------|--------------------------|
--------------------------|--------------------------|
--------------------------|--------------------------|
--------3-----3-----------|--------3-----2--------7--|
--1--1--1--1--1--1--1--3--|--3--3--3--3--3--3--3--5--|
--------------------------|--------------------------|


  E  E  E  E  E  E  E  E     E  E  E  E  E  E  E  E   
--------------------------|--------------------------|
--------------------------|--------------------------|
--------------------------|--------------------------|
--------------------------|--------------5--5--3--3--|
--x--x--x--x--x--x--x--x--|--x--x--x--x--3--3--1--1--|
--------------------------|--------------------------|


                Aitakute                          furetakute           
    E  E  E  E  E        E  E  E     E   E  E  E  E          E  E  E   
|---------------------------------|-----------------------------------|
|---------------------------------|-----------------------------------|
|*--------------------------------|-----------------------------------|
|*-----------------------------5--|--L\----------------------------7--|
|---x--x--x--x--x--------x--x--3--|--L\--x--x--x--x----------x--x--5--|
|---------------------------------|-----------------------------------|


               Me no mae ni             iru noni                         
  E   E  E  E  E            E  E  E     E        E  E  E  E  E  E  E     
-------------------------------------|---------------------------------||
-------------------------------------|---------------------------------||
-------------------------------------|--------------------------------*||
--L\---------------------------------|--------------------------5--3--*||
--L\--x--x--x--x------------x--x--x--|--x--------x--x--x--x--x--3--1---||
-------------------------------------|---------------------------------||


  E  E  E  E  E  E  E  E     E   E  E  E  E  E  E  E   
--------------------------|---------------------------|
--------------------------|---------------------------|
--------------------------|---------------------------|
-----------------------5--|--L\--------------------7--|
--x--x--x--x--x--x--x--3--|--L\--x--x--x--x--x--x--5--|
--------------------------|---------------------------|


  E   E  E  E  E  E  E  E     E  E  E  E  E  E  E  E   
---------------------------|--------------------------|
---------------------------|--------------------------|
---------------------------|--------------------------|
--L\-----------------------|--------------------------|
--L\--x--x--x--x--x--x--x--|--x--x--x--x--x--x--x--x--|
---------------------------|--------------------------|


  kyou mo mata aiso warai                                                  
  E                       E  E  E  E  E  E  E     E  E  E  E  E  E  E  E   
-----------------------------------------------|--------------------------|
-----------------------------------------------|--------------------------|
-----------------------------------------------|--------------------------|
--3-----------------------3--3--3--3--3--3--3--|--5--5--5--5--5--5--5--5--|
--1-----------------------1--1--1--1--1--1--1--|--3--3--3--3--3--3--3--3--|
-----------------------------------------------|--------------------------|


  E  E  E  E  E  E  E  E     E  E  E  E  H         
--------------------------|-----------------------|
--------------------------|-----------------------|
--------------------------|-----------------------|
--7--7--7--7--7--7--7--7--|--7--7--7--7-----------|
--5--5--5--5--5--5--5--5--|--5--5--5--5-----------|
--------------------------|-----------------------|


    Where are you?                         Where are you?                       
    PM             PM             PM PM    PM             PM                PM  
    E              E  E  E  E  E  E  E     E              E  E  E  E  E  E  E   
|---------------------------------------|--------------------------------------|
|---------------------------------------|--------------------------------------|
|*--------------------------------------|--------------------------------------|
|*--------------------3-----3-----------|--------------------5-----5-----------|
|---1--------------1--1--x--1--x--x--3--|--3--------------3--3--x--3--x--x--5--|
|---------------------------------------|--------------------------------------|


  Where are you?                       
  PM             PM                    
  E              E  E  E  E  E  E  E   
--------------------------------------|
--------------------------------------|
--------------------------------------|
--------------------7-----7-----------|
--5--------------5--5--x--5--x--x--x--|
--------------------------------------|


  Where is your heart?                         
                                         PM    
  E                    E  E  E  E  E  E  E     
---------------------------------------------||
---------------------------------------------||
--------------------------------------------*||
--------------------------------------------*||
--x--------------------x--x--x--x--x--x--1---||
---------------------------------------------||


  Where are you?                         Where are you?                       
  PM             PM                PM    PM             PM                PM  
  E              E  E  E  E  E  E  E     E              E  E  E  E  E  E  E   
--------------------------------------|--------------------------------------|
--------------------------------------|--------------------------------------|
--------------------------------------|--------------------------------------|
--------------------3-----3-----------|--------------------5-----5-----------|
--1--------------1--1--x--1--x--x--3--|--3--------------3--3--x--3--x--x--5--|
--------------------------------------|--------------------------------------|


  Where.. are you?                       
  PM               PM                    
  E                E  E  E  E  E  E  E   
----------------------------------------|
----------------------------------------|
----------------------------------------|
----------------------7-----7-----------|
--5----------------5--5--x--5--x--x--x--|
----------------------------------------|


  Where is your heart?                       
  E                    E  E  E  E  E  E  E   
--------------------------------------------|
--------------------------------------------|
--------------------------------------------|
--------------------------------------------|
--x--------------------x--x--x--x--x--x--x--|
--------------------------------------------|


  Konna sugu soba ni iru noni                                                  
  E                           E  E  E  E  E  E  E     E  E  E  E  E  E  E  E   
---------------------------------------------------|--------------------------|
---------------------------------------------------|--------------------------|
---------------------------------------------------|--------------------------|
--3---------------------------3--3--3--3--3--3--3--|--5--5--5--5--5--5--5--5--|
--1---------------------------1--1--1--1--1--1--1--|--3--3--3--3--3--3--3--3--|
---------------------------------------------------|--------------------------|


  E  E  E  E  E  E  E  E     E  E  E  E  H         
--------------------------|-----------------------|
--------------------------|-----------------------|
--------------------------|-----------------------|
--7--7--7--7--7--7--7--7--|--7--7--7--7-----------|
--5--5--5--5--5--5--5--5--|--5--5--5--5-----------|
--------------------------|-----------------------|


  Q     E   E   E   E   E   E     Q     E   E   E   E   E   E   
-------------------------------|-------------------------------|
-------10--10--10--10--10--10--|-------10--10--10--10--10--10--|
-------10--10--10--10--10--10--|-------10--10--10--10--10--10--|
--3----10--10--10--10--10--10--|--5----10--10--10--10--10--10--|
--1----------------------------|--3----------------------------|
-------------------------------|-------------------------------|


  Q    E  E  E  E  E  E     E  E  E  E  E  E  E  E   
-------------------------|--------------------------|
-------5--6--5--6--5--6--|--6--6--6--6--5-----------|
-------5--5--5--5--5--5--|--5--5--5--5--5-----------|
--7----------------------|-----------------7--5-----|
--5----------------------|-----------------5--3--0--|
-------------------------|--------------------------|


  Q     E   E   E   E   E   E     Q     E   E   E   E   E   E   
-------------------------------|-------------------------------|
-------10--10--10--10--10--10--|-------10--10--10--10--10--10--|
-------10--10--10--10--10--10--|-------10--10--10--10--10--10--|
--3----10--10--10--10--10--10--|--5----10--10--10--10--10--10--|
--1----------------------------|--3----------------------------|
-------------------------------|-------------------------------|


  Q    E  E  E  E  E  E     E  E   E   E   E   E   E  E   
-------------------------|-------------------------------|
-------5--6--5--6--5--6--|--5--6--11--11--11--11--10--6--|
-------5--5--5--5--5--5--|--5--5--10--10--10--10---9--5--|
--7----------------------|-------------------------------|
--5----------------------|-------------------------------|
-------------------------|-------------------------------|


  Q     E   E   E   E   E   E     Q     E   E   E   E   E   E   
-------------------------------|-------------------------------|
-------10--10--10--10--10--10--|-------10--10--10--10--10--10--|
-------10--10--10--10--10--10--|-------10--10--10--10--10--10--|
--3----10--10--10--10--10--10--|--5----10--10--10--10--10--10--|
--1----------------------------|--3----------------------------|
-------------------------------|-------------------------------|


  Q    E  E  E  E  E  E     E  E  E  E  E  E  E  E   
-------------------------|--------------------------|
-------5--6--5--6--5--6--|--6--6--6--6--5-----------|
-------5--5--5--5--5--5--|--5--5--5--5--5-----------|
--7----------------------|-----------------7--5-----|
--5----------------------|-----------------5--3--0--|
-------------------------|--------------------------|


  Q     E   E   E   E   E   E     Q     E   E   E   E   E   E   
-------------------------------|-------------------------------|
-------10--10--10--10--10--10--|-------10--10--10--10--10--10--|
-------10--10--10--10--10--10--|-------10--10--10--10--10--10--|
--3----10--10--10--10--10--10--|--5----10--10--10--10--10--10--|
--1----------------------------|--3----------------------------|
-------------------------------|-------------------------------|


  E  E  Q    H           Q    E  E  E  E  E  E   
----------------------|-------------------------|
----------------------|-------------------------|
----------------------|-------------------------|
--7-------------------|-------------5--5--3--3--|
--5-------------------|-------x--x--3--3--1--1--|
----------------------|-------------------------|


             Kurushikute                          tsumetakute              
    E  E  E  E           E  E  E  E     E   E  E  E           E  E  E  E   
|------------------------------------|------------------------------------|
|------------------------------------|------------------------------------|
|*-----------------------------------|------------------------------------|
|*--------------------------------5--|--L\-----------------------------7--|
|---x--x--x--x-----------x--x--x--3--|--L\--x--x--x-----------x--x--x--5--|
|------------------------------------|------------------------------------|


            Mune ga kishimu                   dake na noni                      
  E   E  E  E               E  E  E  E     E  E            E  E  E  E  E  E     
----------------------------------------|-------------------------------------||
----------------------------------------|-------------------------------------||
----------------------------------------|------------------------------------*||
--L\------------------------------------|------------------------------5--3--*||
--L\--x--x--x---------------x--x--x--x--|--x--x------------x--x--x--x--3--1---||
----------------------------------------|-------------------------------------||


  E  E  E  E  E  E  E  E     E   E  E  E  E  E  E  E   
--------------------------|---------------------------|
--------------------------|---------------------------|
--------------------------|---------------------------|
-----------------------5--|--L\--------------------7--|
--x--x--x--x--x--x--x--3--|--L\--x--x--x--x--x--x--5--|
--------------------------|---------------------------|


  E   E  E  E  E  E  E  E     E  E  E  E  E  E  E  E   
---------------------------|--------------------------|
---------------------------|--------------------------|
---------------------------|--------------------------|
--L\-----------------------|--------------------------|
--L\--x--x--x--x--x--x--x--|--x--x--x--x--x--x--x--x--|
---------------------------|--------------------------|


  Aa kao mo mitaku nai gurai aishiteru                       
  E                                    E  E  E  E  E  E  E   
------------------------------------------------------------|
------------------------------------------------------------|
------------------------------------------------------------|
--3------------------------------------3--3--3--3--3--3--3--|
--1------------------------------------1--1--1--1--1--1--1--|
------------------------------------------------------------|


  E  E  E  E  E  E  E  E     E  E  E  E  E  E  E  E     E  E  E  E  H         
--------------------------|--------------------------|-----------------------|
--------------------------|--------------------------|-----------------------|
--------------------------|--------------------------|-----------------------|
--5--5--5--5--5--5--5--5--|--7--7--7--7--7--7--7--7--|--7--7--7--7-----------|
--3--3--3--3--3--3--3--3--|--5--5--5--5--5--5--5--5--|--5--5--5--5-----------|
--------------------------|--------------------------|-----------------------|


    I love you                         I love you                       
    PM         PM             PM PM    PM         PM                PM  
    E          E  E  E  E  E  E  E     E          E  E  E  E  E  E  E   
|-----------------------------------|----------------------------------|
|-----------------------------------|----------------------------------|
|*----------------------------------|----------------------------------|
|*----------------3-----3-----------|----------------5-----5-----------|
|---1----------1--1--x--1--x--x--3--|--3----------3--3--x--3--x--x--5--|
|-----------------------------------|----------------------------------|


  I love you                         And I hate you                         
  PM         PM                                                       PM    
  E          E  E  E  E  E  E  E     E              E  E  E  E  E  E  E     
----------------------------------|---------------------------------------||
----------------------------------|---------------------------------------||
----------------------------------|--------------------------------------*||
----------------7-----7-----------|--------------------------------------*||
--5----------5--5--x--5--x--x--x--|--x--------------x--x--x--x--x--x--1---||
----------------------------------|---------------------------------------||


  I love you                         I love you                       
  PM         PM                PM    PM         PM                PM  
  E          E  E  E  E  E  E  E     E          E  E  E  E  E  E  E   
----------------------------------|----------------------------------|
----------------------------------|----------------------------------|
----------------------------------|----------------------------------|
----------------3-----3-----------|----------------5-----5-----------|
--1----------1--1--x--1--x--x--3--|--3----------3--3--x--3--x--x--5--|
----------------------------------|----------------------------------|


  I love you                         And I hate you                       
  PM         PM                                                           
  E          E  E  E  E  E  E  E     E              E  E  E  E  E  E  E   
----------------------------------|--------------------------------------|
----------------------------------|--------------------------------------|
----------------------------------|--------------------------------------|
----------------7-----7-----------|--------------------------------------|
--5----------5--5--x--5--x--x--x--|--x--------------x--x--x--x--x--x--x--|
----------------------------------|--------------------------------------|


  Mou kimi ni wa kikoenai                                                  
  E                       E  E  E  E  E  E  E     E  E  E  E  E  E  E  E   
-----------------------------------------------|--------------------------|
-----------------------------------------------|--------------------------|
-----------------------------------------------|--------------------------|
--3-----------------------3--3--3--3--3--3--3--|--5--5--5--5--5--5--5--5--|
--1-----------------------1--1--1--1--1--1--1--|--3--3--3--3--3--3--3--3--|
-----------------------------------------------|--------------------------|


  E  E  E  E  E  E  E  E     E  E  E  E  E  E  E  E   
--------------------------|--------------------------|
--------------------------|--------------------------|
--------------------------|--------------------------|
--7--7--7--7--7--7--7--7--|--7--7--7--7--7--7--7--7--|
--5--5--5--5--5--5--5--5--|--5--5--5--5--5--5--5--5--|
--------------------------|--------------------------|


    I love you                         I love you                           
    PM         PM                PM    PM         PM                    PM  
    E          E  E  E  E  E  E  E     E          E   E  E   E  E   E   E   
|-----------------------------------|--------------------------------------|
|-----------------------------------|--------------------------------------|
|*----------------------------------|--------------------------------------|
|*----------------8-----8-----------|----------------10-----10-------------|
|---6----------6--6--x--6--x--x--8--|--8----------8---8--x---8--x---x--10--|
|-----------------------------------|--------------------------------------|


   I love you                           
   PM         PM                        
   E          E   E  E   E  E   E   E   
---------------------------------------|
---------------------------------------|
---------------------------------------|
-----------------12-----12-----12--12--|
--10---------10--10--x--10--x--10--10--|
---------------------------------------|


   And I hate you                               
   E              E   E   E   E   E   E   E   3x
----------------------------------------------||
----------------------------------------------||
---------------------------------------------*||
--12-------------12--12--12--12--12--12--12--*||
--10-------------10--10--10--10--10--10--10---||
----------------------------------------------||


  Mou kimi ni wa kikoenai                                           
  PM                      PM                                        
  E                       E  E  E  E  Q     E     W                 
-----------------------------------------------|-------------------|
-----------------------------------------------|-------------------|
-----------------------------------------------|-------------------|
-----------------------------8-----8-------10--|-------------------|
--6-----------------------6--6-----6--------8--|-------------------|
-----------------------------------------------|-------------------|


  Q     E   E   E   E   E   E      Q     E   E   E   E   E   E   
-------------------------------|--------------------------------|
-------15--15--15--15--15--15--|--------15--15--15--15--15--15--|
-------15--15--15--15--15--15--|--------15--15--15--15--15--15--|
--8----15--15--15--15--15--15--|--10----15--15--15--15--15--15--|
--6----------------------------|---8----------------------------|
-------------------------------|--------------------------------|


   Q     E   E   E   E   E   E      E   E   E   E   E   E   E  E   
--------------------------------|---------------------------------|
--------10--11--10--11--10--11--|--11--11--11--11--10-------------|
--------10--10--10--10--10--10--|--10--10--10--10--10-------------|
--12----------------------------|----------------------12--10-----|
--10----------------------------|----------------------10---8--5--|
--------------------------------|---------------------------------|


  Q     E   E   E   E   E   E      Q     E   E   E   E   E   E   
-------------------------------|--------------------------------|
-------15--15--15--15--15--15--|--------15--15--15--15--15--15--|
-------15--15--15--15--15--15--|--------15--15--15--15--15--15--|
--8----15--15--15--15--15--15--|--10----15--15--15--15--15--15--|
--6----------------------------|---8----------------------------|
-------------------------------|--------------------------------|


   Q     E   E   E   E   E   E      E   E   E   E   E   E   E   E   
--------------------------------|----------------------------------|
--------10--11--10--11--10--11--|--10--11--16--16--16--16--15--11--|
--------10--10--10--10--10--10--|--10--10--15--15--15--15--14--10--|
--12----------------------------|----------------------------------|
--10----------------------------|----------------------------------|
--------------------------------|----------------------------------|


  Q     E   E   E   E   E   E      Q     E   E   E   E   E   E   
-------------------------------|--------------------------------|
-------15--15--15--15--15--15--|--------15--15--15--15--15--15--|
-------15--15--15--15--15--15--|--------15--15--15--15--15--15--|
--8----15--15--15--15--15--15--|--10----15--15--15--15--15--15--|
--6----------------------------|---8----------------------------|
-------------------------------|--------------------------------|


   Q     E   E   E   E   E   E      E   E   E   E   E   E   E  E   
--------------------------------|---------------------------------|
--------10--11--10--11--10--11--|--11--11--11--11--10-------------|
--------10--10--10--10--10--10--|--10--10--10--10--10-------------|
--12----------------------------|----------------------12--10-----|
--10----------------------------|----------------------10---8--5--|
--------------------------------|---------------------------------|


  Mou kimi ni wa kikoenai                                           
  Q                       E  E  E  E  E  E     E  E  H        Q     
--------------------------------------------|----------------------|
--------------------------------------------|----------------------|
--------------------------------------------|----------------------|
--8-----------------------8--8--8--8--8--8--|--7-------------------|
--6-----------------------6--6--6--6--6--6--|--8-------------------|
--------------------------------------------|----------------------|


  W                  
-------------------||
-------------------||
-------------------||
-------------------||
-------------------||
-------------------||




Duration Legend
---------------
W - whole
H - half
Q - quarter
E - 8th
S - 16th
T - 32nd
X - 64th
. - note dotted
|-n-|  - n-tuplets


Tablature Legend
----------------
L - tied note
x - dead note
g - grace note
(n) - ghost note
> - accentuded note
NH - natural harmonic
AH - artificial harmonic
TH - tapped harmonic
SH - semi harmonic
PH - pitch harmonic
h - hammer on
p - pull off
b - bend
br - bendRelease
pb - preBend
pbr - preBendRelease
brb - bendReleaseBend
\n/ - tremolo bar dip
\n - tremolo bar dive
-/n - tremolo bar Release up
/n\ - tremolo bar inverted dip
/n - tremolo bar return
-\n - tremolo bar Release down
S - shift slide
s - legato slide
/ -  slide into from below or out of upwards
\ -  slide into from above or out of downwards
~ - vibrato
W - wide vibrato
tr - trill
TP - tremolo picking
T - tapping
S - slap
P - pop
< - fade in
^ - brush up
v - brush down
comments
We did not receive enough feedback on this tab! Please rate:
print report bad tab
1 2 3 4 5
1 comment total.
0 reply
sinshredd wrote on June 2 2013, 11:49 am

Thanks for a great tab.

I want to post or [tab]
guest
You may want to rate the tab now too:
select rating
Please do not post tabs as comments. Select "correction" instead!