Oops, an error
Loading. Please wait.

Batcat Tab

ver1
ver1

Intro

Whole song

Interactive

More versions @911Tabs.com
5,762 views 36 this week
no commentswrite comment
1 2 3 4 5
excellent!
x 5
Autoscroll
+/-
esc
set tempo
stop
Contributor
Hey! There's an official Ultimate Guitar app which is ideal
for learning songs when you're away from computer. Get the app
WARNING: You are trying to view
                                    content from Ultimate-Guitar.com
                                    in an unauthorized application,
                                    which is prohibited.

                                    Please use an official Ultimate
                                    Guitar Tabs application for iPhone,
                                    iPad or Android to access legitimate
                                    chords, guitar, bass, and drum tabs
                                    from Ultimate-Guitar.com database.

                                    Type "ultimate guitar tabs" in Apple
                                    App Store's or Android Market's
                                    search to find the application.
BATCAT
by Mogwai
from The Hawk is Howling 

This an ASCII version of a guitar pro file I will be uploading, it 
contains all three guitars, bass, and drums. The drums are transcribed 
from midi, there is a legend at the bottom if your having trouble
reading it. A few pieces of this are estimated as certain parts of
the song are very buried in the mix, so its maybe not so much 100%
but more like 95% accurate. I also made some formatting adjustments
for the site and it may have thrown off my duration markers, but I'm
too lazy to fix them, you can figure it out. This is all tabbed by ear
and took me a lot of work, so if you copy this tab credit me sort of
like this: |
           V
Credit to caffeine wolf for getting the intro started

STANDARD TUNING ON EVERYTHING

----------------------
----------------------
Guitar 1
----------------------
----------------------

     E  E  E   E   E   E      E   E   E  E  E  E     E  E  E  E  E  E   
E||-----------------------|-----------------------|--------------------|
B||-----------------------|-----------------------|--------------------|
G||-----------------------|-----------------------|--------------------|
D||-----------------------|-----------------------|--------------------|
A||-----------------------|-----------------------|--------------------|
E||--0--0--0--12--12--12--|--10--10--10--0--0--0--|--8--8--8--0--0--0--|


  E  E  E   E   E   E     E  E  E   E   E   E      E   E   E  E  E  E   
-----------------------|-----------------------|-----------------------|
-----------------------|-----------------------|-----------------------|
-----------------------|-----------------------|-----------------------|
-----------------------|-----------------------|-----------------------|
-----------------------|-----------------------|-----------------------|
--8--8--8--10--10--10--|--0--0--0--12--12--12--|--10--10--10--0--0--0--|


  E  E  E  E  E  E     E  E  E   E   E   E     E  E  E   E   E   E   
--------------------|-----------------------|-----------------------|
--------------------|-----------------------|-----------------------|
--------------------|-----------------------|-----------------------|
--------------------|-----------------------|-----------------------|
--------------------|-----------------------|-----------------------|
--8--8--8--0--0--0--|--8--8--8--10--10--10--|--0--0--0--12--12--12--|


   E   E   E  E  E  E     E  E  E  E  E  E     E  E  E   E   E   E   
-----------------------|--------------------|-----------------------|
-----------------------|--------------------|-----------------------|
-----------------------|--------------------|-----------------------|
-----------------------|--------------------|-----------------------|
-----------------------|--------------------|-----------------------|
--10--10--10--0--0--0--|--8--8--8--0--0--0--|--8--8--8--10--10--10--|


  E  E  E   E   E   E      E   E   E  E  E  E     E  E  E  E  E  E   
-----------------------|-----------------------|--------------------|
-----------------------|-----------------------|--------------------|
-----------------------|-----------------------|--------------------|
-----------------------|-----------------------|--------------------|
-----------------------|-----------------------|--------------------|
--0--0--0--12--12--12--|--10--10--10--0--0--0--|--8--8--8--0--0--0--|


  E  E  E   E   E   E     E  E  E   E   E   E     E  E  E   E   E   E   
-----------------------|-----------------------|-----------------------|
-----------------------|-----------------------|-----------------------|
-----------------------|-----------------------|-----------------------|
-----------------------|-----------------------|-----------------------|
-----------------------|-----------------------|-----------------------|
--8--8--8--10--10--10--|--0--0--0--12--12--12--|--0--0--0--10--10--10--|


  E  E  E   E   E   E     E  E  E  E  E  E     E  E  E   E   E   E   
-----------------------|--------------------|-----------------------|
-----------------------|--------------------|-----------------------|
-----------------------|--------------------|-----------------------|
-----------------------|--------------------|-----------------------|
-----------------------|--8--7--8--7--8--7--|-----------------------|
--0--0--0--12--12--12--|--0--0--0--0--0--0--|--0--0--0--12--12--12--|


  E  E  E   E   E   E     E  E  E   E   E   E     E  E  E  E  E  E   
-----------------------|-----------------------|--------------------|
-----------------------|-----------------------|--------------------|
-----------------------|-----------------------|--------------------|
-----------------------|-----------------------|--------------------|
-----------------------|-----------------------|--8--7--8--7--8--7--|
--0--0--0--10--10--10--|--0--0--0--12--12--12--|--0--0--0--0--0--0--|


  E  E  E   E   E   E     E  E  E   E   E   E     E  E  E   E   E   E   
-----------------------|-----------------------|-----------------------|
-----------------------|-----------------------|-----------------------|
-----------------------|-----------------------|-----------------------|
-----------------------|-----------------------|-----------------------|
-----------------------|-----------------------|-----------------------|
--0--0--0--12--12--12--|--0--0--0--10--10--10--|--0--0--0--12--12--12--|


  E  E  E  E  E  E     E  E  E   E   E   E     E  E  E   E   E   E   
--------------------|-----------------------|-----------------------|
--------------------|-----------------------|-----------------------|
--------------------|-----------------------|-----------------------|
--------------------|-----------------------|-----------------------|
--8--7--8--7--8--7--|-----------------------|-----------------------|
--0--0--0--0--0--0--|--0--0--0--12--12--12--|--0--0--0--10--10--10--|


  E  E  E   E   E   E     E  E  E  E  E  E     E  E  E  E  E  E   
-----------------------|--------------------|--------------------|
-----------------------|--------------------|--------------------|
-----------------------|--------------------|--5--5--5--7--7--7--|
-----------------------|--------------------|--5--5--5--7--7--7--|
-----------------------|--8--7--8--7--8--7--|--3--3--3--5--5--5--|
--0--0--0--12--12--12--|--0--0--0--0--0--0--|--------------------|


  Q    E  E  E  E     Q    E  E  E  E     Q    E  E  E  E   
-------------------|-------------------|-------------------|
-------------------|-------------------|-------------------|
-------------------|-------------------|-------------------|
--2-------2--2--2--|--2-------2--2--2--|--2-------2--2--2--|
--2-------2--2--2--|--2-------2--2--2--|--2-------2--2--2--|
--0----0--0--0--0--|--0----0--0--0--0--|--0----0--0--0--0--|


  E  E  E  E  E  E     Q    E  E  E  E     Q    E  E  E  E   
--------------------|-------------------|-------------------|
--------------------|-------------------|-------------------|
--5--5--5--7--7--7--|-------------------|-------------------|
--5--5--5--7--7--7--|--2-------2--2--2--|--2-------2--2--2--|
--3--3--3--5--5--5--|--2-------2--2--2--|--2-------2--2--2--|
--------------------|--0----0--0--0--0--|--0----0--0--0--0--|


  Q    E  E  E  E     E  E  E  E  E  E     Q    E  E  E  E   
-------------------|--------------------|-------------------|
-------------------|--------------------|-------------------|
-------------------|--5--5--5--7--7--7--|-------------------|
--2-------2--2--2--|--5--5--5--7--7--7--|--2-------2--2--2--|
--2-------2--2--2--|--3--3--3--5--5--5--|--2-------2--2--2--|
--0----0--0--0--0--|--------------------|--0----0--0--0--0--|


  Q    E  E  E  E     Q    E  E  E  E     E  E  E  E  E  E   
-------------------|-------------------|--------------------|
-------------------|-------------------|--------------------|
-------------------|-------------------|--5--5--5--7--7--7--|
--2-------2--2--2--|--2-------2--2--2--|--5--5--5--7--7--7--|
--2-------2--2--2--|--2-------2--2--2--|--3--3--3--5--5--5--|
--0----0--0--0--0--|--0----0--0--0--0--|--------------------|


  Q    E  E  E  E     Q    E  E  E  E     Q    E  E  E  E   
-------------------|-------------------|-------------------|
-------------------|-------------------|-------------------|
-------------------|-------------------|-------------------|
--2-------2--2--2--|--2-------2--2--2--|--2-------2--2--2--|
--2-------2--2--2--|--2-------2--2--2--|--2-------2--2--2--|
--0----0--0--0--0--|--0----0--0--0--0--|--0----0--0--0--0--|


  E  E  E  E  E  E     E  E  E   E   E   E     E  E  E   E   E   E   
--------------------|-----------------------|-----------------------|
--------------------|-----------------------|-----------------------|
--5--5--5--7--7--7--|-----------------------|-----------------------|
--5--5--5--7--7--7--|-----------------------|-----------------------|
--3--3--3--5--5--5--|-----------------------|-----------------------|
--------------------|--0--0--0--12--12--12--|--0--0--0--10--10--10--|


  E  E  E   E   E   E     E  E  E  E  E  E     E  E  E   E   E   E   
-----------------------|--------------------|-----------------------|
-----------------------|--------------------|-----------------------|
-----------------------|--------------------|-----------------------|
-----------------------|--------------------|-----------------------|
-----------------------|--8--7--8--7--8--7--|-----------------------|
--0--0--0--12--12--12--|--0--0--0--0--0--0--|--0--0--0--12--12--12--|


  E  E  E   E   E   E     E  E  E   E   E   E     E  E  E  E  E  E   
-----------------------|-----------------------|--------------------|
-----------------------|-----------------------|--------------------|
-----------------------|-----------------------|--------------------|
-----------------------|-----------------------|--------------------|
-----------------------|-----------------------|--8--7--8--7--8--7--|
--0--0--0--10--10--10--|--0--0--0--12--12--12--|--0--0--0--0--0--0--|


  E  E  E   E   E   E     E  E  E   E   E   E     E  E  E   E   E   E   
-----------------------|-----------------------|-----------------------|
-----------------------|-----------------------|-----------------------|
-----------------------|-----------------------|-----------------------|
-----------------------|-----------------------|-----------------------|
-----------------------|-----------------------|-----------------------|
--0--0--0--12--12--12--|--0--0--0--10--10--10--|--0--0--0--12--12--12--|


  E  E  E  E  E  E     E  E  E   E   E   E     E  E  E   E   E   E   
--------------------|-----------------------|-----------------------|
--------------------|-----------------------|-----------------------|
--------------------|-----------------------|-----------------------|
--------------------|-----------------------|-----------------------|
--8--7--8--7--8--7--|-----------------------|-----------------------|
--0--0--0--0--0--0--|--0--0--0--12--12--12--|--0--0--0--10--10--10--|


  E  E  E   E   E   E     E  E  E  E  E  E     E   E  E   E   E   E   
-----------------------|--------------------|------------------------|
-----------------------|--------------------|------------------------|
-----------------------|--------------------|--9--11--9--------------|
-----------------------|--------------------|------------12--11--12--|
-----------------------|--8--7--8--7--8--7--|------------------------|
--0--0--0--12--12--12--|--0--0--0--0--0--0--|------------------------|


   E  Q    E  Q         Q    E  E  Q         Q    E  E  Q       
---------------------|--------------------|--------------------|
---------------------|--------------------|--------------------|
---------------------|--------------------|--------------------|
--11--9--------------|--------------------|--------------------|
-----------7--7br----|--L----7--7--7br----|--L----7--7--7br----|
-----------0--0------|--L----0--0--0------|--L----0--0--0------|


  E   E  E   E   E   E      E  Q    E  Q         Q    E  E  Q       
------------------------|---------------------|--------------------|
------------------------|---------------------|--------------------|
--9--11--9--------------|---------------------|--------------------|
------------12--11--12--|--11--9--------------|--------------------|
------------------------|-----------7--7br----|--L----7--7--7br----|
------------------------|-----------0--0------|--L----0--0--0------|


  Q    E  E  Q         E   E  E   E   E   E      E  Q    E  Q       
--------------------|------------------------|---------------------|
--------------------|------------------------|---------------------|
--------------------|--9--11--9--------------|---------------------|
--------------------|------------12--11--12--|--11--9--------------|
--L----7--7--7br----|------------------------|-----------7--7br----|
--L----0--0--0------|------------------------|-----------0--0------|


  Q    E  E  Q         Q    E  E  Q         E   E  E   E   E   E   
--------------------|--------------------|------------------------|
--------------------|--------------------|------------------------|
--------------------|--------------------|--9--11--9--------------|
--------------------|--------------------|------------12--11--12--|
--L----7--7--7br----|--L----7--7--7br----|------------------------|
--L----0--0--0------|--L----0--0--0------|------------------------|


   E  Q    E  Q         Q    E  E  Q         Q    E  E  Q       
---------------------|--------------------|--------------------|
---------------------|--------------------|--------------------|
---------------------|--------------------|--------------------|
--11--9--------------|--------------------|--------------------|
-----------7--7br----|--L----7--7--7br----|--L----7--7--7br----|
-----------0--0------|--L----0--0--0------|--L----0--0--0------|


  E   E  E   E   E   E     E  E  E  E  E  E     E  E  E  E  E  E   
------------------------|--------------------|--------------------|
------------------------|--------------------|--------------------|
--9--11--9--------------|--------------------|--------------------|
------------12--11--12--|--------------------|--------------------|
------------------------|--2--2--2--2--2--2--|--2--2--2--2--2--2--|
------------------------|--0--0--0--0--0--0--|--0--0--0--0--0--0--|


  E  E  E  E  E  E     E  E  E  E  E  E     E  E  E  E  E  E   
--------------------|--------------------|--------------------|
--------------------|--------------------|--------------------|
--------------------|--------------------|--------------------|
--------------------|--5--5--5--4--4--4--|--------------------|
--2--2--2--2--2--2--|--3--3--3--2--2--2--|--2--2--2--2--2--2--|
--0--0--0--0--0--0--|--------------------|--0--0--0--0--0--0--|


  E  E  E  E  E  E     E  E  E  E  E  E     E  E  E  E  E  E   
--------------------|--------------------|--------------------|
--------------------|--------------------|--------------------|
--------------------|--------------------|--------------------|
--------------------|--------------------|--5--5--5--4--4--4--|
--2--2--2--2--2--2--|--2--2--2--2--2--2--|--3--3--3--2--2--2--|
--0--0--0--0--0--0--|--0--0--0--0--0--0--|--------------------|


  E  E  E  E  E  E     E  E  E  E  E  E     E  E  E  E  E  E   
--------------------|--------------------|--------------------|
--------------------|--------------------|--------------------|
--------------------|--------------------|--------------------|
--------------------|--------------------|--------------------|
--2--2--2--2--2--2--|--2--2--2--2--2--2--|--2--2--2--2--2--2--|
--0--0--0--0--0--0--|--0--0--0--0--0--0--|--0--0--0--0--0--0--|


  E  E  E  E  E  E     E  E  E   E   E   E     E  E  E   E   E   E   
--------------------|-----------------------|-----------------------|
--------------------|-----------------------|-----------------------|
--------------------|-----------------------|-----------------------|
--5--5--5--4--4--4--|--7--7--7--10--10--10--|--9--9--9--10--10--10--|
--3--3--3--2--2--2--|--5--5--5---8---8---8--|--7--7--7---8---8---8--|
--------------------|-----------------------|-----------------------|


  E  E  E   E   E   E     E  E  E   E   E   E     E  E  E  E  E  E   
-----------------------|-----------------------|--------------------|
-----------------------|-----------------------|--------------------|
-----------------------|-----------------------|--------------------|
--7--7--7--10--10--10--|--9--9--9--10--10--10--|--------------------|
--5--5--5---8---8---8--|--7--7--7---8---8---8--|--2--2--2--2--2--2--|
-----------------------|-----------------------|--0--0--0--0--0--0--|


  E  E  E  E  E  E     E  E  E  E  E  E     E  E  E  E  E  E   
--------------------|--------------------|--------------------|
--------------------|--------------------|--------------------|
--------------------|--------------------|--------------------|
--------------------|--------------------|--5--5--5--4--4--4--|
--2--2--2--2--2--2--|--2--2--2--2--2--2--|--3--3--3--2--2--2--|
--0--0--0--0--0--0--|--0--0--0--0--0--0--|--------------------|


  E  E  E  E  E  E     E  E  E  E  E  E     E  E  E  E  E  E   
--------------------|--------------------|--------------------|
--------------------|--------------------|--------------------|
--------------------|--------------------|--------------------|
--------------------|--------------------|--------------------|
--2--2--2--2--2--2--|--2--2--2--2--2--2--|--2--2--2--2--2--2--|
--0--0--0--0--0--0--|--0--0--0--0--0--0--|--0--0--0--0--0--0--|


  E  E  E  E  E  E     E  E  E  E  E  E     E  E  E  E  E  E   
--------------------|--------------------|--------------------|
--------------------|--------------------|--------------------|
--------------------|--------------------|--------------------|
--5--5--5--4--4--4--|--------------------|--------------------|
--3--3--3--2--2--2--|--2--2--2--2--2--2--|--2--2--2--2--2--2--|
--------------------|--0--0--0--0--0--0--|--0--0--0--0--0--0--|


  E  E  E  E  E  E     E  E  E  E  E  E     E  E  E   E   E   E   
--------------------|--------------------|-----------------------|
--------------------|--------------------|-----------------------|
--------------------|--------------------|-----------------------|
--------------------|--5--5--5--4--4--4--|--7--7--7--10--10--10--|
--2--2--2--2--2--2--|--3--3--3--2--2--2--|--5--5--5---8---8---8--|
--0--0--0--0--0--0--|--------------------|-----------------------|


  E  E  E  E  E  E     E  E  E   E   E   E     E  E  E  E  E  E   
--------------------|-----------------------|--------------------|
--------------------|-----------------------|--------------------|
--------------------|-----------------------|--------------------|
--9--9--9--5--5--5--|--7--7--7--10--10--10--|--9--9--9--5--5--5--|
--7--7--7--3--3--3--|--5--5--5---8---8---8--|--7--7--7--3--3--3--|
--------------------|-----------------------|--------------------|


  H.              H.              H.              H.            
---------------|---------------|---------------|---------------|
---------------|---------------|---------------|---------------|
---------------|---------------|---------------|---------------|
--2------------|--L------------|--L------------|--L------------|
--2------------|--L------------|--L------------|--L------------|
--0------------|--L------------|--L------------|--L------------|


   H.               H.              H.              H.            
-----------------|---------------|---------------|---------------|
-----------------|---------------|---------------|---------------|
-----------------|---------------|---------------|---------------|
--(2)------------|--L------------|--L------------|--L------------|
--(2)------------|--L------------|--L------------|--L------------|
--(0)------------|--L------------|--L------------|--L------------|


   H.               H.              E  E  E   E   E   E   
-----------------|---------------|-----------------------|
-----------------|---------------|-----------------------|
-----------------|---------------|-----------------------|
--(2)------------|--L------------|-----------------------|
--(2)------------|--L------------|-----------------------|
--(0)------------|--L------------|--0--0--0--12--12--12--|


   E   E   E  E  E  E     E  E  E  E  E  E     E  E  E   E   E   E   
-----------------------|--------------------|-----------------------|
-----------------------|--------------------|-----------------------|
-----------------------|--------------------|-----------------------|
-----------------------|--------------------|-----------------------|
-----------------------|--------------------|-----------------------|
--10--10--10--0--0--0--|--8--8--8--0--0--0--|--8--8--8--10--10--10--|


  E  E  E   E   E   E      E   E   E  E  E  E     E  E  E  E  E  E   
-----------------------|-----------------------|--------------------|
-----------------------|-----------------------|--------------------|
-----------------------|-----------------------|--------------------|
-----------------------|-----------------------|--------------------|
-----------------------|-----------------------|--------------------|
--0--0--0--12--12--12--|--10--10--10--0--0--0--|--8--8--8--0--0--0--|


  E  E  E   E   E   E     E  E  E   E   E   E      E   E   E  E  E  E   
-----------------------|-----------------------|-----------------------|
-----------------------|-----------------------|-----------------------|
-----------------------|-----------------------|-----------------------|
-----------------------|-----------------------|-----------------------|
-----------------------|-----------------------|-----------------------|
--8--8--8--10--10--10--|--0--0--0--12--12--12--|--10--10--10--0--0--0--|


  E  E  E  E  E  E     E  E  E   E   E   E     E  E  E   E   E   E   
--------------------|-----------------------|-----------------------|
--------------------|-----------------------|-----------------------|
--------------------|-----------------------|-----------------------|
--------------------|-----------------------|-----------------------|
--------------------|-----------------------|-----------------------|
--8--8--8--0--0--0--|--8--8--8--10--10--10--|--0--0--0--12--12--12--|


   E   E   E  E  E  E     E  E  E  E  E  E     E  E  E   E   E   E   
-----------------------|--------------------|-----------------------|
-----------------------|--------------------|-----------------------|
-----------------------|--------------------|-----------------------|
-----------------------|--------------------|-----------------------|
-----------------------|--------------------|-----------------------|
--10--10--10--0--0--0--|--8--8--8--0--0--0--|--8--8--8--10--10--10--|


  E  E  E   E   E   E     E  E  E   E   E   E     E  E  E   E   E   E   
-----------------------|-----------------------|-----------------------|
-----------------------|-----------------------|-----------------------|
-----------------------|-----------------------|-----------------------|
-----------------------|-----------------------|-----------------------|
-----------------------|-----------------------|-----------------------|
--0--0--0--12--12--12--|--0--0--0--10--10--10--|--0--0--0--12--12--12--|


  E  E  E  E  E  E     E  E  E   E   E   E     E  E  E   E   E   E   
--------------------|-----------------------|-----------------------|
--------------------|-----------------------|-----------------------|
--------------------|-----------------------|-----------------------|
--------------------|-----------------------|-----------------------|
--8--7--8--7--8--7--|-----------------------|-----------------------|
--0--0--0--0--0--0--|--0--0--0--12--12--12--|--0--0--0--10--10--10--|


  E  E  E   E   E   E     E  E  E  E  E  E     E  E  E   E   E   E   
-----------------------|--------------------|-----------------------|
-----------------------|--------------------|-----------------------|
-----------------------|--------------------|-----------------------|
-----------------------|--------------------|-----------------------|
-----------------------|--8--7--8--7--8--7--|-----------------------|
--0--0--0--12--12--12--|--0--0--0--0--0--0--|--0--0--0--12--12--12--|


  E  E  E   E   E   E     E  E  E   E   E   E     E  E  E  E  E  E   
-----------------------|-----------------------|--------------------|
-----------------------|-----------------------|--------------------|
-----------------------|-----------------------|--------------------|
-----------------------|-----------------------|--------------------|
-----------------------|-----------------------|--8--7--8--7--8--7--|
--0--0--0--10--10--10--|--0--0--0--12--12--12--|--0--0--0--0--0--0--|


  E  E  E   E   E   E     E  E  E   E   E   E     E  E  E   E   E   E   
-----------------------|-----------------------|-----------------------|
-----------------------|-----------------------|-----------------------|
-----------------------|-----------------------|-----------------------|
-----------------------|-----------------------|-----------------------|
-----------------------|-----------------------|-----------------------|
--0--0--0--12--12--12--|--0--0--0--10--10--10--|--0--0--0--12--12--12--|


  E  E  E  E  E  E     E  E  E  E  E  E     Q    E  E  Q       
--------------------|--------------------|--------------------|
--------------------|--------------------|--------------------|
--------------------|--5--5--5--7--7--7--|--------------------|
--------------------|--5--5--5--7--7--7--|--------------------|
--8--7--8--7--8--7--|--3--3--3--5--5--5--|--7----7--7--7br----|
--0--0--0--0--0--0--|--------------------|--0----0--0--0------|


  Q    E  E  Q         Q    E  E  Q         E  E  E   E   E   E   
--------------------|--------------------|-----------------------|
--------------------|--------------------|-----------------------|
--------------------|--------------------|--5--5--5--10--10--10--|
--------------------|--------------------|--5--5--5--10--10--10--|
--L----7--7--7br----|--L----7--7--7br----|--3--3--3---8---8---8--|
--L----0--0--0------|--L----0--0--0------|-----------------------|


  Q    E  E  Q         Q    E  E  Q         Q    E  E  Q       
--------------------|--------------------|--------------------|
--------------------|--------------------|--------------------|
--------------------|--------------------|--------------------|
--------------------|--------------------|--------------------|
--7----7--7--7br----|--L----7--7--7br----|--L----7--7--7br----|
--0----0--0--0------|--L----0--0--0------|--L----0--0--0------|


  E  E  E  E  E  E     Q    E  E  Q         Q    E  E  Q       
--------------------|--------------------|--------------------|
--------------------|--------------------|--------------------|
--5--5--5--7--7--7--|--------------------|--------------------|
--5--5--5--7--7--7--|--------------------|--------------------|
--3--3--3--5--5--5--|--7----7--7--7br----|--L----7--7--7br----|
--------------------|--0----0--0--0------|--L----0--0--0------|


  Q    E  E  Q         E  E  E   E   E   E     Q    E  E  E  E   
--------------------|-----------------------|-------------------|
--------------------|-----------------------|-------------------|
--------------------|--5--5--5--10--10--10--|-------------------|
--------------------|--5--5--5--10--10--10--|--2-------2--2--2--|
--L----7--7--7br----|--3--3--3---8---8---8--|--2-------2--2--2--|
--L----0--0--0------|-----------------------|--0----0--0--0--0--|


  Q    E  E  E  E     Q    E  E  E  E     E  E  E   E   E   E   
-------------------|-------------------|-----------------------|
-------------------|-------------------|-----------------------|
-------------------|-------------------|--5--5--5--10--10--10--|
--2-------2--2--2--|--2-------2--2--2--|--5--5--5--10--10--10--|
--2-------2--2--2--|--2-------2--2--2--|--3--3--3---8---8---8--|
--0----0--0--0--0--|--0----0--0--0--0--|-----------------------|


  E  E  E  Q    E     E  E  E  Q    E     E  E  E  Q    E     E  E  E  Q    E   
----------------|-------------------|-------------------|-------------------|
----------------|-------------------|-------------------|-------------------|
----------------|-------------------|-------------------|-------------------|
----------------|-------------------|-------------------|-------------------|
2--2--2--2----2-|--2--2--2--2----2--|--2--2--2--2----2--|--2--2--2--2----2--|
0--0--0--0----0-|--0--0--0--0----0--|--0--0--0--0----0--|--0--0--0--0----0--|


  E  E  E  Q    E     E  E  E  Q    E     E  E  E  Q    E     E  E  E  Q    E   

----------------|-------------------|-------------------|-------------------|
----------------|-------------------|-------------------|-------------------|
----------------|-------------------|-------------------|-------------------|
----------------|-------------------|-------------------|-------------------|
2--2--2--2----2-|--2--2--2--2----2--|--2--2--2--2----2--|--2--2--2--2----2--|
0--0--0--0----0-|--0--0--0--0----0--|--0--0--0--0----0--|--0--0--0--0----0--|


  E  E  E  Q    E     E  E  E  Q    E     E  E  E  Q    E     E  E  E  Q    E   

----------------|-------------------|-------------------|-------------------|
----------------|-------------------|-------------------|-------------------|
----------------|-------------------|-------------------|-------------------|
----------------|-------------------|-------------------|-------------------|
2--2--2--2----2-|--2--2--2--2----2--|--2--2--2--2----2--|--2--2--2--2----2--|
0--0--0--0----0-|--0--0--0--0----0--|--0--0--0--0----0--|--0--0--0--0----0--|


  E  E  E  Q    E     E  E  E  Q    E     E  E  E  Q    E     E  E  E  Q    E   
----------------|-------------------|-------------------|-------------------|
----------------|-------------------|-------------------|-------------------|
----------------|-------------------|-------------------|-------------------|
----------------|-------------------|-------------------|-------------------|
2--2--2--2----2-|--2--2--2--2----2--|--2--2--2--2----2--|--2--2--2--2----2--|
0--0--0--0----0-|--0--0--0--0----0--|--0--0--0--0----0--|--0--0--0--0----0--|


  E  E  E  E  E  E     E  E  E  E  E  E     E  E  E  Q    E   
--------------------|--------------------|-------------------|
--------------------|--------------------|-------------------|
--------------------|--------------------|-------------------|
--------------------|--------------------|-------------------|
--5--5--5--5--5--5--|--5--5--5--5--5--5--|--2--2--2--2----2--|
--3--3--3--3--3--3--|--3--3--3--3--3--3--|--0--0--0--0----0--|


  E  E  E  Q    E     E  E  E  E  E  E     E  E  E  E  E  E   
-------------------|--------------------|--------------------|
-------------------|--------------------|--------------------|
-------------------|--------------------|--------------------|
-------------------|--------------------|--------------------|
--2--2--2--2----2--|--5--5--5--5--5--5--|--5--5--5--5--5--5--|
--0--0--0--0----0--|--3--3--3--3--3--3--|--3--3--3--3--3--3--|


  E  E  E  E  E  E     E  E  E  E  E  E     E  E  E  Q    E   
--------------------|--------------------|-------------------|
--------------------|--------------------|-------------------|
--------------------|--------------------|-------------------|
--------------------|--------------------|-------------------|
--8--8--8--8--8--8--|--8--8--8--8--8--9--|--2--2--2--2----2--|
--6--6--6--6--6--6--|--6--6--6--6--6--7--|--0--0--0--0----0--|


  E  E  E  Q    E     E  E  E  Q    E     E  E  E  Q    E     E  E  E  Q    E   
----------------|-------------------|-------------------|-------------------|
----------------|-------------------|-------------------|-------------------|
----------------|-------------------|-------------------|-------------------|
----------------|-------------------|-------------------|-------------------|
2--2--2--2----2-|--2--2--2--2----2--|--2--2--2--2----2--|--2--2--2--2----2--|
0--0--0--0----0-|--0--0--0--0----0--|--0--0--0--0----0--|--0--0--0--0----0--|


  E  E  E  Q    E     E  E  E  Q    E     E  E  E  Q    E   
-------------------|-------------------|-------------------|
-------------------|-------------------|-------------------|
-------------------|-------------------|-------------------|
-------------------|-------------------|-------------------|
--2--2--2--2----2--|--2--2--2--2----2--|--2--2--2--2----2--|
--0--0--0--0----0--|--0--0--0--0----0--|--0--0--0--0----0--|


  E  E  E  E  E  E     E  E  E  E  E  E     E  E  E  Q    E   
--------------------|--------------------|-------------------|
--------------------|--------------------|-------------------|
--------------------|--------------------|-------------------|
--------------------|--------------------|-------------------|
--5--5--5--5--5--5--|--5--5--5--5--5--5--|--2--2--2--2----2--|
--3--3--3--3--3--3--|--3--3--3--3--3--3--|--0--0--0--0----0--|


  E  E  E  Q    E     E  E  E  E  E  E     E  E  E  E  E  E   
-------------------|--------------------|--------------------|
-------------------|--------------------|--------------------|
-------------------|--------------------|--------------------|
-------------------|--------------------|--------------------|
--2--2--2--2----2--|--5--5--5--5--5--5--|--5--5--5--5--5--5--|
--0--0--0--0----0--|--3--3--3--3--3--3--|--3--3--3--3--3--3--|


  E  E  E  E  E  E     E  E  E  E  E  E     Q    E  E  E  E   
--------------------|--------------------|-------------------|
--------------------|--------------------|-------------------|
--------------------|--------------------|-------------------|
--------------------|--------------------|--2----2--2--2--2--|
--8--8--8--8--8--8--|--8--8--8--8--8--9--|--2----2--2--2--2--|
--6--6--6--6--6--6--|--6--6--6--6--6--7--|--0----0--0--0--0--|


  E  E  E  E  Q       E  E  Q    E  E     E  E  E  E  E  E   
-------------------|-------------------|--------------------|
-------------------|-------------------|--------------------|
-------------------|-------------------|--------------------|
-----2--2--2--2----|--2--2--2----2--2--|--2--2--2--2--2--2--|
-----2--2--2--2----|--2--2--2----2--2--|--2--2--2--2--2--2--|
--L--0--0--0--0----|--0--0--0----0--0--|--0--0--0--0--0--0--|


  Q    E  E  E  E     E  E  E  E  Q       E  E  Q    E  E   
-------------------|-------------------|-------------------|
-------------------|-------------------|-------------------|
-------------------|-------------------|-------------------|
--2----2--2--2--2--|-----2--2--2--2----|--2--2--2----2--2--|
--2----2--2--2--2--|-----2--2--2--2----|--2--2--2----2--2--|
--0----0--0--0--0--|--L--0--0--0--0----|--0--0--0----0--0--|


  E  E  E  E  E  E     Q    E  E  E  E     E  E  E  E  Q     
--------------------|-------------------|-------------------|
--------------------|-------------------|-------------------|
--------------------|-------------------|-------------------|
--2--2--2--2--2--2--|--2----2--2--2--2--|-----2--2--2--2----|
--2--2--2--2--2--2--|--2----2--2--2--2--|-----2--2--2--2----|
--0--0--0--0--0--0--|--0----0--0--0--0--|--L--0--0--0--0----|


  E  E  Q    E  E     E  E  E  E  E  E     Q    E  E  E  E   
-------------------|--------------------|-------------------|
-------------------|--------------------|-------------------|
-------------------|--------------------|-------------------|
--2--2--2----2--2--|--2--2--2--2--2--2--|--2----2--2--2--2--|
--2--2--2----2--2--|--2--2--2--2--2--2--|--2----2--2--2--2--|
--0--0--0----0--0--|--0--0--0--0--0--0--|--0----0--0--0--0--|


  E  E  E  E  Q       E  E  Q    E  E     E  E  E  E  E  E     E    
-------------------|-------------------|--------------------|-----||
-------------------|-------------------|--------------------|-----||
-------------------|-------------------|--------------------|-----||
-----2--2--2--2----|--2--2--2----2--2--|--2--2--2--2--2--2--|--2--||
-----2--2--2--2----|--2--2--2----2--2--|--2--2--2--2--2--2--|--2--||
--L--0--0--0--0----|--0--0--0----0--0--|--0--0--0--0--0--0--|--0--||





----------------------
----------------------
Guitar 2
----------------------
----------------------

     E  E  E  E  E  E     E  E  E  E  E  E     E  E  E  E  E  E   
E||--0--0--0--0--0--0--|--0--0--0--0--0--0--|--0--0--0--0--0--0--|
B||--5--5--5--5--5--5--|--5--5--5--5--5--5--|--5--5--5--5--5--5--|
G||--------------------|--------------------|--------------------|
D||--------------------|--------------------|--------------------|
A||--------------------|--------------------|--------------------|
E||--------------------|--------------------|--------------------|


  E  E  E  E  E  E     E  E  E  E  E  E     E  E  E  E  E  E   
--0--0--0--0--0--0--|--0--0--0--0--0--0--|--0--0--0--0--0--0--|
--5--5--5--5--5--5--|--5--5--5--5--5--5--|--5--5--5--5--5--5--|
--------------------|--------------------|--------------------|
--------------------|--------------------|--------------------|
--------------------|--------------------|--------------------|
--------------------|--------------------|--------------------|


  E  E  E  E  E  E     E  E  E  E  E  E     E  E  E  E  E  E   
--0--0--0--0--0--0--|--0--0--0--0--0--0--|--0--0--0--0--0--0--|
--5--5--5--5--5--5--|--5--5--5--5--5--5--|--5--5--5--5--5--5--|
--------------------|--------------------|--------------------|
--------------------|--------------------|--------------------|
--------------------|--------------------|--------------------|
--------------------|--------------------|--------------------|


  E  E  E  E  E  E     E  E  E  E  E  E     E  E  E  E  E  E   
--0--0--0--0--0--0--|--0--0--0--0--0--0--|--0--0--0--0--0--0--|
--5--5--5--5--5--5--|--5--5--5--5--5--5--|--5--5--5--5--5--5--|
--------------------|--------------------|--------------------|
--------------------|--------------------|--------------------|
--------------------|--------------------|--------------------|
--------------------|--------------------|--------------------|


  E  E  E  E  E  E     E  E  E  E  E  E     E  E  E  E  E  E   
--0--0--0--0--0--0--|--0--0--0--0--0--0--|--0--0--0--0--0--0--|
--5--5--5--5--5--5--|--5--5--5--5--5--5--|--5--5--5--5--5--5--|
--------------------|--------------------|--------------------|
--------------------|--------------------|--------------------|
--------------------|--------------------|--------------------|
--------------------|--------------------|--------------------|


  E  E  E  E  E  E     E   Q    E   Q       E  Q    E  Q     
--0--0--0--0--0--0--|--------------------|------------------|
--5--5--5--5--5--5--|-----11-------11----|-----8-------8----|
--------------------|--9--------9--------|--9-------9-------|
--------------------|--------------------|------------------|
--------------------|--------------------|------------------|
--------------------|--------------------|------------------|


  E   Q    E   Q        E  E   E  E   E  E     E   Q    E   Q     
--------------------|-----------------------|--------------------|
-----10-------10----|-----------------------|-----11-------11----|
--9--------9--------|--10--9--10--9--10--9--|--9--------9--------|
--------------------|-----------------------|--------------------|
--------------------|-----------------------|--------------------|
--------------------|-----------------------|--------------------|


  E  Q    E  Q       E   Q    E   Q        E  E   E  E   E  E   
------------------|--------------------|-----------------------|
-----8-------8----|-----10-------10----|-----------------------|
--9-------9-------|--9--------9--------|--10--9--10--9--10--9--|
------------------|--------------------|-----------------------|
------------------|--------------------|-----------------------|
------------------|--------------------|-----------------------|


  E   Q    E   Q       E  Q    E  Q       E   Q    E   Q     
--------------------|------------------|--------------------|
-----11-------11----|-----8-------8----|-----10-------10----|
--9--------9--------|--9-------9-------|--9--------9--------|
--------------------|------------------|--------------------|
--------------------|------------------|--------------------|
--------------------|------------------|--------------------|


   E  E   E  E   E  E     E   Q    E   Q       E  Q    E  Q     
-----------------------|--------------------|------------------|
-----------------------|-----11-------11----|-----8-------8----|
--10--9--10--9--10--9--|--9--------9--------|--9-------9-------|
-----------------------|--------------------|------------------|
-----------------------|--------------------|------------------|
-----------------------|--------------------|------------------|


  E   Q    E   Q        E  E   E  E   E  E     E  E  E  E  E  E   
--------------------|-----------------------|--------------------|
-----10-------10----|-----------------------|--------------------|
--9--------9--------|--10--9--10--9--10--9--|--5--5--5--7--7--7--|
--------------------|-----------------------|--5--5--5--7--7--7--|
--------------------|-----------------------|--3--3--3--5--5--5--|
--------------------|-----------------------|--------------------|


  E  E  E  E  E  E     E  E  E  E  E  E     E  E  E  E  E  E   
--0--0--0--0--0--0--|--0--0--0--0--0--0--|--0--0--0--0--0--0--|
--5--5--5--5--5--5--|--5--5--5--5--5--5--|--5--5--5--5--5--5--|
--------------------|--------------------|--------------------|
--------------------|--------------------|--------------------|
--------------------|--------------------|--------------------|
--------------------|--------------------|--------------------|


  E  E  E  E  E  E     E  E  E  E  E  E     E  E  E  E  E  E   
--------------------|--0--0--0--0--0--0--|--0--0--0--0--0--0--|
--------------------|--5--5--5--5--5--5--|--5--5--5--5--5--5--|
--5--5--5--7--7--7--|--------------------|--------------------|
--5--5--5--7--7--7--|--------------------|--------------------|
--3--3--3--5--5--5--|--------------------|--------------------|
--------------------|--------------------|--------------------|


  E  E  E  E  E  E     E  E  E   E   E   E     E  E  E  E  E  E   
--0--0--0--0--0--0--|-----------------------|--0--0--0--0--0--0--|
--5--5--5--5--5--5--|-----------------------|--5--5--5--5--5--5--|
--------------------|--5--5--5--10--10--10--|--------------------|
--------------------|--5--5--5--10--10--10--|--------------------|
--------------------|--3--3--3---8---8---8--|--------------------|
--------------------|-----------------------|--------------------|


  E  E  E  E  E  E     E  E  E  E  E  E     E  E  E  E  E  E   
--0--0--0--0--0--0--|--0--0--0--0--0--0--|--------------------|
--5--5--5--5--5--5--|--5--5--5--5--5--5--|--------------------|
--------------------|--------------------|--5--5--5--7--7--7--|
--------------------|--------------------|--5--5--5--7--7--7--|
--------------------|--------------------|--3--3--3--5--5--5--|
--------------------|--------------------|--------------------|


  E  E  E  E  E  E     E  E  E  E  E  E     E  E  E  E  E  E   
--0--0--0--0--0--0--|--0--0--0--0--0--0--|--0--0--0--0--0--0--|
--5--5--5--5--5--5--|--5--5--5--5--5--5--|--5--5--5--5--5--5--|
--------------------|--------------------|--------------------|
--------------------|--------------------|--------------------|
--------------------|--------------------|--------------------|
--------------------|--------------------|--------------------|


  E  E  E  E  E  E     E   Q    E   Q       E  Q    E  Q     
--------------------|--------------------|------------------|
--------------------|-----11-------11----|-----8-------8----|
--5--5--5--7--7--7--|--9--------9--------|--9-------9-------|
--5--5--5--7--7--7--|--------------------|------------------|
--3--3--3--5--5--5--|--------------------|------------------|
--------------------|--------------------|------------------|


  E   Q    E   Q        E  E   E   E   E  E     E   Q    E   Q     
--------------------|------------------------|--------------------|
-----10-------10----|------------------------|-----11-------11----|
--9--------9--------|--10--9--10--12--10--9--|--9--------9--------|
--------------------|------------------------|--------------------|
--------------------|------------------------|--------------------|
--------------------|------------------------|--------------------|


  E  Q    E  Q       E   Q    E   Q        E  E   E   E   E  E   
------------------|--------------------|------------------------|
-----8-------8----|-----10-------10----|------------------------|
--9-------9-------|--9--------9--------|--10--9--10--12--10--9--|
------------------|--------------------|------------------------|
------------------|--------------------|------------------------|
------------------|--------------------|------------------------|


  E   Q    E   Q       E  Q    E  Q       E   Q    E   Q     
--------------------|------------------|--------------------|
-----11-------11----|-----8-------8----|-----10-------10----|
--9--------9--------|--9-------9-------|--9--------9--------|
--------------------|------------------|--------------------|
--------------------|------------------|--------------------|
--------------------|------------------|--------------------|


   E  E   E   E   E  E     E   Q    E   Q       E  Q    E  Q     
------------------------|--------------------|------------------|
------------------------|-----11-------11----|-----8-------8----|
--10--9--10--12--10--9--|--9--------9--------|--9-------9-------|
------------------------|--------------------|------------------|
------------------------|--------------------|------------------|
------------------------|--------------------|------------------|


  E   Q    E   Q        E  E   E   E   E  E     H.              Q.     Q.       
-----------------|------------------------|---------------|-----------------|
---10-------10---|------------------------|---------------|-----------------|
9--------9-------|--10--9--10--12--10--9--|--9------------|--L------9~------|
-----------------|------------------------|---------------|-----------------|
-----------------|------------------------|---------------|-----------------|
-----------------|------------------------|---------------|-----------------|


  Q.      Q.         Q.      Q.         H.              Q.     Q.       
------------------|------------------|---------------|-----------------|
--8~--------------|--8~--------------|---------------|-----------------|
----------9~------|----------9~------|--9------------|--9------9~------|
------------------|------------------|---------------|-----------------|
------------------|------------------|---------------|-----------------|
------------------|------------------|---------------|-----------------|


  Q.       Q.          Q.      Q.         H.              Q.      Q      E    
------------------|-------------------|---------------|---------------------|
-8~------11~------|--11~--------------|---------------|---------11~----11~--|
------------------|-----------9~------|--9------------|--9------------------|
------------------|-------------------|---------------|---------------------|
------------------|-------------------|---------------|---------------------|
------------------|-------------------|---------------|---------------------|


   E   Q     Q.         Q.      Q.         H.              Q.     Q.       
---------------------|------------------|---------------|-----------------|
---L--11~------------|--8~--------------|---------------|-----------------|
-------------9~------|----------9~------|--9------------|--9------9~------|
---------------------|------------------|---------------|-----------------|
---------------------|------------------|---------------|-----------------|
---------------------|------------------|---------------|-----------------|


            NH          NH                                                   
  Q.        Q.          Q.     Q.         H.              E  E  E  E  E  E   
----------<>7------|--<>L--------------|---------------|--0--0--0--0--0--0--|
--8~---------------|-------------------|---------------|--5--5--5--5--5--5--|
-------------------|-----------9~------|--9------------|--------------------|
-------------------|-------------------|---------------|--------------------|
-------------------|-------------------|---------------|--------------------|
-------------------|-------------------|---------------|--------------------|


  E  E  E  E  E  E     E  E  E  E  E  E     E  E  E  E  E  E   
--0--0--0--0--0--0--|--0--0--0--0--0--0--|--0--0--0--0--0--0--|
--5--5--5--5--5--5--|--5--5--5--5--5--5--|--8--8--8--8--8--8--|
--------------------|--------------------|--------------------|
--------------------|--------------------|--------------------|
--------------------|--------------------|--------------------|
--------------------|--------------------|--------------------|


  E  E  E  E  E  E     E  E  E  E  E  E     E  E  E  E  E  E   
--0--0--0--0--0--0--|--0--0--0--0--0--0--|--0--0--0--0--0--0--|
--5--5--5--5--5--5--|--5--5--5--5--5--5--|--5--5--5--5--5--5--|
--------------------|--------------------|--------------------|
--------------------|--------------------|--------------------|
--------------------|--------------------|--------------------|
--------------------|--------------------|--------------------|


   E   E   E   E   E   E     E  E  E  E  E  E     E  E  E  E  E  E   
------10----------10------|--0--0--0--0--0--0--|--0--0--0--0--0--0--|
--12------12--12------12--|--5--5--5--5--5--5--|--5--5--5--5--5--5--|
--------------------------|--------------------|--------------------|
--------------------------|--------------------|--------------------|
--------------------------|--------------------|--------------------|
--------------------------|--------------------|--------------------|


  E  E  E  E  E  E     E  E  E  E  E  E     E  E  E   E   E   E   
--0--0--0--0--0--0--|--0--0--0--0--0--0--|-----------------------|
--5--5--5--5--5--5--|--8--8--8--8--8--8--|--8--8--8--12--12--12--|
--------------------|--7--7--7--7--7--7--|--7--7--7--11--11--11--|
--------------------|--5--5--5--5--5--5--|--5--5--5---9---9---9--|
--------------------|--------------------|-----------------------|
--------------------|--------------------|-----------------------|


   E   E   E   E   E   E      E   E   E   E   E   E      E   E   E  E  E  E   
-------------------------|--------------------------|-----------------------|
-15--15--15--12--12--12--|--10--10--10--12--12--12--|--10--10--10--8--8--8--|
-14--14--14--11--11--11--|---9---9---9--11--11--11--|---9---9---9--7--7--7--|
-12--12--12---9---9---9--|---7---7---7---9---9---9--|---7---7---7--5--5--5--|
-------------------------|--------------------------|-----------------------|
-------------------------|--------------------------|-----------------------|


  E  E  E  E  E  E     E  E  E  E  E  E     E  E  E  E  E  E   
--0--0--0--0--0--0--|--0--0--0--0--0--0--|--0--0--0--0--0--0--|
--5--5--5--5--5--5--|--5--5--5--5--5--5--|--5--5--5--5--5--5--|
--------------------|--------------------|--------------------|
--------------------|--------------------|--------------------|
--------------------|--------------------|--------------------|
--------------------|--------------------|--------------------|


  E  E  E  E  E  E     E  E  E  E  E  E     E  E  E  E  E  E   
--0--0--0--0--0--0--|--0--0--0--0--0--0--|--0--0--0--0--0--0--|
--8--8--8--7--7--7--|--5--5--5--5--5--5--|--5--5--5--5--5--5--|
--7--7--7--6--6--6--|--------------------|--------------------|
--5--5--5--4--4--4--|--------------------|--------------------|
--------------------|--------------------|--------------------|
--------------------|--------------------|--------------------|


  E  E  E  E  E  E      E   E   E   E   E   E     E  E  E  E  E  E   
--0--0--0--0--0--0--|------10----------10------|--0--0--0--0--0--0--|
--5--5--5--5--5--5--|--12------12--12------12--|--5--5--5--5--5--5--|
--------------------|--------------------------|--------------------|
--------------------|--------------------------|--------------------|
--------------------|--------------------------|--------------------|
--------------------|--------------------------|--------------------|


  E  E  E  E  E  E     E  E  E  E  E  E      E   E   E  E  E  E   
--0--0--0--0--0--0--|--0--0--0--0--0--0--|---0---0---0--0--0--0--|
--5--5--5--5--5--5--|--5--5--5--5--5--5--|--10--10--10--8--8--8--|
--------------------|--------------------|---9---9---9--7--7--7--|
--------------------|--------------------|---7---7---7--5--5--5--|
--------------------|--------------------|-----------------------|
--------------------|--------------------|-----------------------|


  E  E  E   E   E   E      E   E   E   E   E   E      E   E   E   E   E   E   
----------------------|--------------------------|--------------------------|
-8--8--8--12--12--12--|--15--15--15--12--12--12--|--10--10--10--12--12--12--|
-7--7--7--11--11--11--|--14--14--14--11--11--11--|---9---9---9--11--11--11--|
-5--5--5---9---9---9--|--12--12--12---9---9---9--|---7---7---7---9---9---9--|
----------------------|--------------------------|--------------------------|
----------------------|--------------------------|--------------------------|


   E   E   E  E  E  E     E  E  E  E  E  E     E  E  E  E  E  E   
-----------------------|--0--L--0--L--0--L--|--0--L--0--L--0--L--|
--10--10--10--8--8--8--|--5--5--5--5--5--5--|--5--5--5--5--5--5--|
---9---9---9--7--7--7--|--------------------|--------------------|
---7---7---7--5--5--5--|--------------------|--------------------|
-----------------------|--------------------|--------------------|
-----------------------|--------------------|--------------------|


  E  E  E  E  E  E     E  E  E  E  E  E     E  E  E  E  E  E   
--0--L--0--L--0--L--|--0--L--0--L--0--L--|--0--L--0--L--0--L--|
--5--5--5--5--5--5--|--5--5--5--5--5--5--|--5--5--5--5--5--5--|
--------------------|--------------------|--------------------|
--------------------|--------------------|--------------------|
--------------------|--------------------|--------------------|
--------------------|--------------------|--------------------|


  E  E  E  E  E  E     E  E  E  E  E  E     E  E  E  E  E  E   
--0--L--0--L--0--L--|--0--L--0--L--0--L--|--0--L--0--L--0--L--|
--5--5--5--5--5--5--|--5--5--5--5--5--5--|--5--5--5--5--5--5--|
--------------------|--------------------|--------------------|
--------------------|--------------------|--------------------|
--------------------|--------------------|--------------------|
--------------------|--------------------|--------------------|


  E  E  E  E  E  E     E  E  E  E  E  E     E  E  E  E  E  E   
--0--L--0--L--0--L--|--0--L--0--L--0--L--|--0--L--0--L--0--L--|
--5--5--5--5--5--5--|--5--5--5--5--5--5--|--5--5--5--5--5--5--|
--------------------|--------------------|--------------------|
--------------------|--------------------|--------------------|
--------------------|--------------------|--------------------|
--------------------|--------------------|--------------------|


  E  E  E  E  E  E     E  E  E  E  E  E     E  E  E  E  E  E   
--0--L--0--L--0--L--|--0--L--0--L--0--L--|--0--L--0--L--0--L--|
--5--5--5--5--5--5--|--5--5--5--5--5--5--|--5--5--5--5--5--5--|
--------------------|--------------------|--------------------|
--------------------|--------------------|--------------------|
--------------------|--------------------|--------------------|
--------------------|--------------------|--------------------|


  E  E  E  E  E  E     E  E  E  E  E  E     E  E  E  E  E  E   
--0--L--0--L--0--L--|--0--L--0--L--0--L--|--0--L--0--L--0--L--|
--5--5--5--5--5--5--|--5--5--5--5--5--5--|--5--5--5--5--5--5--|
--------------------|--------------------|--------------------|
--------------------|--------------------|--------------------|
--------------------|--------------------|--------------------|
--------------------|--------------------|--------------------|


  E  E  E  E  E  E     E  E  E  E  E  E     E  E  E  E  E  E   
--0--L--0--L--0--L--|--0--L--0--L--0--L--|--0--L--0--L--0--L--|
--5--5--5--5--5--5--|--5--5--5--5--5--5--|--5--5--5--5--5--5--|
--------------------|--------------------|--------------------|
--------------------|--------------------|--------------------|
--------------------|--------------------|--------------------|
--------------------|--------------------|--------------------|


  E  E  E  E  E  E     E  E  E  E  E  E     E  E  E  E  E  E   
--0--L--0--L--0--L--|--0--L--0--L--0--L--|--0--L--0--L--0--L--|
--5--5--5--5--5--5--|--5--5--5--5--5--5--|--5--5--5--5--5--5--|
--------------------|--------------------|--------------------|
--------------------|--------------------|--------------------|
--------------------|--------------------|--------------------|
--------------------|--------------------|--------------------|


  E  E  E  E  E  E     E  E  E  E  E  E     E  E  E  E  E  E   
--0--L--0--L--0--L--|--0--L--0--L--0--L--|--0--L--0--L--0--L--|
--5--5--5--5--5--5--|--5--5--5--5--5--5--|--5--5--5--5--5--5--|
--------------------|--------------------|--------------------|
--------------------|--------------------|--------------------|
--------------------|--------------------|--------------------|
--------------------|--------------------|--------------------|


  E   Q    E   Q       E  Q    E  Q       E   Q    E   Q     
--------------------|------------------|--------------------|
-----11-------11----|-----8-------8----|-----10-------10----|
--9--------9--------|--9-------9-------|--9--------9--------|
--------------------|------------------|--------------------|
--------------------|------------------|--------------------|
--------------------|------------------|--------------------|


   E  E   E  E   E  E     E   Q    E   Q       E  Q    E  Q     
-----------------------|--------------------|------------------|
-----------------------|-----11-------11----|-----8-------8----|
--10--9--10--9--10--9--|--9--------9--------|--9-------9-------|
-----------------------|--------------------|------------------|
-----------------------|--------------------|------------------|
-----------------------|--------------------|------------------|


  E   Q    E   Q        E  E   E  E   E  E     E   Q    E   Q     
--------------------|-----------------------|--------------------|
-----10-------10----|-----------------------|-----11-------11----|
--9--------9--------|--10--9--10--9--10--9--|--9--------9--------|
--------------------|-----------------------|--------------------|
--------------------|-----------------------|--------------------|
--------------------|-----------------------|--------------------|


  E  Q    E  Q       E   Q    E   Q        E  E   E   E   E  E   
------------------|--------------------|------------------------|
-----8-------8----|-----10-------10----|------------------------|
--9-------9-------|--9--------9--------|--10--9--10--12--10--9--|
------------------|--------------------|------------------------|
------------------|--------------------|------------------------|
------------------|--------------------|------------------------|


  E   Q    E   Q       E  Q    E  Q       E   Q    E   Q     
--------------------|------------------|--------------------|
-----11-------11----|-----8-------8----|-----10-------10----|
--9--------9--------|--9-------9-------|--9--------9--------|
--------------------|------------------|--------------------|
--------------------|------------------|--------------------|
--------------------|------------------|--------------------|


   E  E   E  E   E  E      E   E   E   E   E   E     E  E  E  E  S  S  S  S  
-----------------------|--------------------------|--0--0--0--0--5h-7p-5p-0-|
-----------------------|--13--13--13--15--15--15--|--5--5--5--5-------------|
--10--9--10--9--10--9--|--12--12--12--14--14--14--|-------------------------|
-----------------------|--10--10--10--12--12--12--|-------------------------|
-----------------------|--------------------------|-------------------------|
-----------------------|--------------------------|-------------------------|


  S  S  S  S E  E  S  S  S  S    S  S  S  S E  E  E  E   
--5h-7p-5p-0-0--0--5h-7p-5p-0-|--5h-7p-5p-0-0--0--0--0--|
-------------5--5-------------|-------------5--5--5--5--|
------------------------------|-------------------------|
------------------------------|-------------------------|
------------------------------|-------------------------|
------------------------------|-------------------------|


   E   E   E   E   E   E     E  E  E  E  S  S  S  S  
--------------------------|--0--0--0--0--5h-7p-5p-0-|
--13--13--13--15--15--15--|--5--5--5--5-------------|
--12--12--12--14--14--14--|-------------------------|
--10--10--10--12--12--12--|-------------------------|
--------------------------|-------------------------|
--------------------------|-------------------------|


  S  S  S  S E  E  S  S  S  S    S  S  S  S E  E  E  E   
--5h-7p-5p-0-0--0--5h-7p-5p-0-|--5h-7p-5p-0-0--0--0--0--|
-------------5--5-------------|-------------5--5--5--5--|
------------------------------|-------------------------|
------------------------------|-------------------------|
------------------------------|-------------------------|
------------------------------|-------------------------|


  E  E  E   E   E   E     E  E  E  E  S  S  S  S  
-----------------------|--0--0--0--0--5h-7p-5p-0-|
-----------------------|--5--5--5--5-------------|
--5--5--5--10--10--10--|-------------------------|
--5--5--5--10--10--10--|-------------------------|
--3--3--3---8---8---8--|-------------------------|
-----------------------|-------------------------|


  S  S  S  S E  E  S  S  S  S    S  S  S  S E  E  E  E     E  E  E  E  E  E   
-5h-7p-5p-0-0--0--5h-7p-5p-0-|--5h-7p-5p-0-0--0--0--0--|--------------------|
------------5--5-------------|-------------5--5--5--5--|--------------------|
-----------------------------|-------------------------|--5--5--5--7--7--7--|
-----------------------------|-------------------------|--5--5--5--7--7--7--|
-----------------------------|-------------------------|--3--3--3--5--5--5--|
-----------------------------|-------------------------|--------------------|


  E  E  E  E  S  S  S  S    S  S  S  S E  E  S  S  S  S  
--0--0--0--0--5h-7p-5p-0-|--5h-7p-5p-0-0--0--5h-7p-5p-0-|
--5--5--5--5-------------|-------------5--5-------------|
-------------------------|------------------------------|
-------------------------|------------------------------|
-------------------------|------------------------------|
-------------------------|------------------------------|


  S  S  S  S E  E  E  E      E   E   E   E   E   E     E  E  E  E  S  S  E   
--5h-7p-5p-0-0--0--0--0--|--------------------------|--0--0--0--0--7p-5p-0--|
-------------5--5--5--5--|--13--13--13--18--18--18--|--5--5--5--5-----------|
-------------------------|--12--12--12--17--17--17--|-----------------------|
-------------------------|--10--10--10--15--15--15--|-----------------------|
-------------------------|--------------------------|-----------------------|
-------------------------|--------------------------|-----------------------|


  S  S  E  E  E  S  S  E     S  S  E  E  E  E  E     E  E  E  E  E  E   
--7p-5p-0--0--0--5h-7p-0--|--5h-7p-0--0--0--0--0--|--0--0--0--0--0--0--|
-----------5--5-----------|-----------5--5--5--5--|--5--5--5--5--5--5--|
--------------------------|-----------------------|--------------------|
--------------------------|-----------------------|--------------------|
--------------------------|-----------------------|--------------------|
--------------------------|-----------------------|--------------------|


  E  E  E  E  S  S  E     S  S  E  E  E  S  S  E     S  S  E  E  E  E  E   
--0--0--0--0--7p-5p-0--|--7p-5p-0--0--0--5h-7p-0--|--5h-7p-0--0--0--0--0--|
--5--5--5--5-----------|-----------5--5-----------|-----------5--5--5--5--|
-----------------------|--------------------------|-----------------------|
-----------------------|--------------------------|-----------------------|
-----------------------|--------------------------|-----------------------|
-----------------------|--------------------------|-----------------------|


  E  E  E  E  E  E     E  E  E  E  S  S  E     S  S  E  E  E  S  S  E   
--0--0--0--0--0--0--|--0--0--0--0--7p-5p-0--|--7p-5p-0--0--0--5h-7p-0--|
--5--5--5--5--5--5--|--5--5--5--5-----------|-----------5--5-----------|
--------------------|-----------------------|--------------------------|
--------------------|-----------------------|--------------------------|
--------------------|-----------------------|--------------------------|
--------------------|-----------------------|--------------------------|


  S  S  E  E  E  E  E     E  E  E  E  E  E     E  E  E  E  S  S  E   
--5h-7p-0--0--0--0--0--|--0--0--0--0--0--0--|--0--0--0--0--7p-5p-0--|
-----------5--5--5--5--|--5--5--5--5--5--5--|--5--5--5--5-----------|
-----------------------|--------------------|-----------------------|
-----------------------|--------------------|-----------------------|
-----------------------|--------------------|-----------------------|
-----------------------|--------------------|-----------------------|


  S  S  E  E  E  S  S  E     S  S  E  E  E  E  E     E  E  E  E  E  E   
--7p-5p-0--0--0--5h-7p-0--|--5h-7p-0--0--0--0--0--|--0--0--0--0--0--0--|
-----------5--5-----------|-----------5--5--5--5--|--5--5--5--5--5--5--|
--------------------------|-----------------------|--------------------|
--------------------------|-----------------------|--------------------|
--------------------------|-----------------------|--------------------|
--------------------------|-----------------------|--------------------|


  E  E  E  E  E  E     E  E  E  E  E  E     E  E  E  E  S  S  E   
--0--0--0--0--0--0--|--0--0--0--0--0--0--|--0--0--0--0--7p-5p-0--|
--8--8--8--8--8--8--|--8--8--8--8--8--8--|--5--5--5--5-----------|
--------------------|--------------------|-----------------------|
--------------------|--------------------|-----------------------|
--------------------|--------------------|-----------------------|
--------------------|--------------------|-----------------------|


  S  S  E  E  E  S  S  E     E  E  E  E  E  E     E  E  E  E  E  E   
--7p-5p-0--0--0--5h-7p-0--|--0--0--0--0--0--0--|--0--0--0--0--0--0--|
-----------5--5-----------|--8--8--8--8--8--8--|--8--8--8--8--8--8--|
--------------------------|--------------------|--------------------|
--------------------------|--------------------|--------------------|
--------------------------|--------------------|--------------------|
--------------------------|--------------------|--------------------|


   E   E   E   E   E   E      E   E   E   E   E   E     E  E  E  E  S  S  E   
--0---0---0---0---0---0--|---0---0---0---0---0---0--|--0--0--0--0--7p-5p-0--|
-11--11--11--11--11--11--|--11--11--11--11--11--12--|--5--5--5--5-----------|
-------------------------|--------------------------|-----------------------|
-------------------------|--------------------------|-----------------------|
-------------------------|--------------------------|-----------------------|
-------------------------|--------------------------|-----------------------|


  S  S  E  E  E  S  S  E     S  S  E  E  E  E  E     E  E  E  E  E  E   
--7p-5p-0--0--0--5h-7p-0--|--5h-7p-0--0--0--0--0--|--0--0--0--0--0--0--|
-----------5--5-----------|-----------5--5--5--5--|--5--5--5--5--5--5--|
--------------------------|-----------------------|--------------------|
--------------------------|-----------------------|--------------------|
--------------------------|-----------------------|--------------------|
--------------------------|-----------------------|--------------------|


  E  E  E  E  S  S  E     S  S  E  E  E  S  S  E     S  S  E  E  E  E  E   
--0--0--0--0--7p-5p-0--|--7p-5p-0--0--0--5h-7p-0--|--5h-7p-0--0--0--0--0--|
--5--5--5--5-----------|-----------5--5-----------|-----------5--5--5--5--|
-----------------------|--------------------------|-----------------------|
-----------------------|--------------------------|-----------------------|
-----------------------|--------------------------|-----------------------|
-----------------------|--------------------------|-----------------------|


  E  E  E  E  E  E     E  E  E  E  E  E     E  E  E  E  E  E   
--0--0--0--0--0--0--|--0--0--0--0--0--0--|--0--0--0--0--0--0--|
--5--5--5--5--5--5--|--8--8--8--8--8--8--|--8--8--8--8--8--8--|
--------------------|--------------------|--------------------|
--------------------|--------------------|--------------------|
--------------------|--------------------|--------------------|
--------------------|--------------------|--------------------|


  E  E  E  E  S  S  E     S  S  E  E  E  S  S  E     E  E  E  E  E  E   
--0--0--0--0--7p-5p-0--|--7p-5p-0--0--0--5h-7p-0--|--0--0--0--0--0--0--|
--5--5--5--5-----------|-----------5--5-----------|--8--8--8--8--8--8--|
-----------------------|--------------------------|--------------------|
-----------------------|--------------------------|--------------------|
-----------------------|--------------------------|--------------------|
-----------------------|--------------------------|--------------------|


  E  E  E  E  E  E      E   E   E   E   E   E      E   E   E   E   E   E   
--0--0--0--0--0--0--|---0---0---0---0---0---0--|---0---0---0---0---0---0--|
--8--8--8--8--8--8--|--11--11--11--11--11--11--|--11--11--11--11--11--12--|
--------------------|--------------------------|--------------------------|
--------------------|--------------------------|--------------------------|
--------------------|--------------------------|--------------------------|
--------------------|--------------------------|--------------------------|


  E  E  E  E  E  E     E  E  E  E  E  E     E  E  E  E  E  E   
--0--0--0--0--0--0--|--0--0--0--0--0--0--|--0--0--0--0--0--0--|
--5--5--5--5--5--5--|--5--5--5--5--5--5--|--5--5--5--5--5--5--|
--------------------|--------------------|--------------------|
--------------------|--------------------|--------------------|
--------------------|--------------------|--------------------|
--------------------|--------------------|--------------------|


  E  E  E  E  E  E     E  E  E  E  E  E     E  E  E  E  E  E   
--0--0--0--0--0--0--|--0--0--0--0--0--0--|--0--0--0--0--0--0--|
--5--5--5--5--5--5--|--5--5--5--5--5--5--|--5--5--5--5--5--5--|
--------------------|--------------------|--------------------|
--------------------|--------------------|--------------------|
--------------------|--------------------|--------------------|
--------------------|--------------------|--------------------|


  E  E  E  E  E  E     E  E  E  E  E  E     E  E  E  E  E  E   
--0--0--0--0--0--0--|--0--0--0--0--0--0--|--0--0--0--0--0--0--|
--5--5--5--5--5--5--|--5--5--5--5--5--5--|--5--5--5--5--5--5--|
--------------------|--------------------|--------------------|
--------------------|--------------------|--------------------|
--------------------|--------------------|--------------------|
--------------------|--------------------|--------------------|


  E  E  E  E  E  E     E  E  E  E  E  E     E  E  E  E  E  E   
--0--0--0--0--0--0--|--0--0--0--0--0--0--|--0--0--0--0--0--0--|
--5--5--5--5--5--5--|--5--5--5--5--5--5--|--5--5--5--5--5--5--|
--------------------|--------------------|--------------------|
--------------------|--------------------|--------------------|
--------------------|--------------------|--------------------|
--------------------|--------------------|--------------------|


  E  E  E  E  E  E     E  E  E  E  E  E     E  E  E  E  E  E   
--0--0--0--0--0--0--|--0--0--0--0--0--0--|--0--0--0--0--0--0--|
--5--5--5--5--5--5--|--5--5--5--5--5--5--|--5--5--5--5--5--5--|
--------------------|--------------------|--------------------|
--------------------|--------------------|--------------------|
--------------------|--------------------|--------------------|
--------------------|--------------------|--------------------|


  E  E  E  E  E  E     E    
--0--0--0--0--0--0--|--0--||
--5--5--5--5--5--5--|--5--||
--------------------|-----||
--------------------|-----||
--------------------|-----||
--------------------|-----||




----------------------
----------------------
Guitar 3
----------------------
----------------------

E||-------|-------|-------|-------|-------|-------|-------|-------|-------|
B||-------|-------|-------|-------|-------|-------|-------|-------|-------|
G||-------|-------|-------|-------|-------|-------|-------|-------|-------|
D||-------|-------|-------|-------|-------|-------|-------|-------|-------|
A||-------|-------|-------|-------|-------|-------|-------|-------|-------|
E||-------|-------|-------|-------|-------|-------|-------|-------|-------|


-------|-------|-------|-------|-------|-------|-------|
-------|-------|-------|-------|-------|-------|-------|
-------|-------|-------|-------|-------|-------|-------|
-------|-------|-------|-------|-------|-------|-------|
-------|-------|-------|-------|-------|-------|-------|
-------|-------|-------|-------|-------|-------|-------|


   E   E   E   Q     E      E   E   E   Q     E      E   E   E   E   E   E   
------------------------|------------------------|--------------------------|
------------------------|------------------------|--------------------------|
--15--15--15--15----15--|--12--12--12--12----12--|--14--14--14--14--14--14--|
------------------------|------------------------|--------------------------|
--13--13--13--13----13--|--10--10--10--10----10--|--12--12--12--12--12--12--|
------------------------|------------------------|--------------------------|


  E  E  E  E  E  E      E   E   E   Q     E      E   E   E   Q     E   
--------------------|------------------------|------------------------|
--------------------|------------------------|------------------------|
--------------------|--15--15--15--15----15--|--12--12--12--12----12--|
--------------------|------------------------|------------------------|
--8--7--8--7--8--7--|--13--13--13--13----13--|--10--10--10--10----10--|
--0--0--0--0--0--0--|------------------------|------------------------|


   E   E   E   E   E   E     E  E  E  E  E  E      E   E   E   Q     E   
--------------------------|--------------------|------------------------|
--------------------------|--------------------|------------------------|
--14--14--14--14--14--14--|--------------------|--15--15--15--15----15--|
--------------------------|--------------------|------------------------|
--12--12--12--12--12--12--|--8--7--8--7--8--7--|--13--13--13--13----13--|
--------------------------|--0--0--0--0--0--0--|------------------------|


   E   E   E   Q     E      E   E   E   E   E   E     E  E  E  E  E  E   
------------------------|--------------------------|--------------------|
------------------------|--------------------------|--------------------|
--12--12--12--12----12--|--14--14--14--14--14--14--|--------------------|
------------------------|--------------------------|--------------------|
--10--10--10--10----10--|--12--12--12--12--12--12--|--8--7--8--7--8--7--|
------------------------|--------------------------|--0--0--0--0--0--0--|


   E   E   E   Q     E      E   E   E   Q     E      E   E   E   E   E   E   
------------------------|------------------------|--------------------------|
------------------------|------------------------|--------------------------|
--15--15--15--15----15--|--12--12--12--12----12--|--14--14--14--14--14--14--|
------------------------|------------------------|--------------------------|
--13--13--13--13----13--|--10--10--10--10----10--|--12--12--12--12--12--12--|
------------------------|------------------------|--------------------------|


  E  E  E  E  E  E     E  E  E  E  E  E     Q    E  E   S   S   S  S  
--------------------|--------------------|---------------------------|
--------------------|--------------------|---------------------------|
--------------------|--5--5--5--7--7--7--|---------------------------|
--------------------|--5--5--5--7--7--7--|---------------------------|
--8--7--8--7--8--7--|--3--3--3--5--5--5--|---------------------------|
--0--0--0--0--0--0--|--------------------|--0----0--0--17h-19p-17p-0-|


   S   S   S  S E  E   S   S   S  S     S   S   S  S E  E  E  E   
------------------------------------|----------------------------|
------------------------------------|----------------------------|
------------------------------------|----------------------------|
------------------------------------|----------------------------|
------------------------------------|----------------------------|
--17h-19p-17p-0-0--0--19p-17h-19p-0-|--19p-17h-19p-0-0--0--0--0--|


  E  E  E  E  E  E     Q    E  E   S   S   S  S  
--------------------|---------------------------|
--------------------|---------------------------|
--5--5--5--7--7--7--|---------------------------|
--5--5--5--7--7--7--|---------------------------|
--3--3--3--5--5--5--|---------------------------|
--------------------|--0----0--0--17h-19p-17p-0-|


   S   S   S  S E  E   S   S   S  S     S   S   S  S E  E  E  E   
------------------------------------|----------------------------|
------------------------------------|----------------------------|
------------------------------------|----------------------------|
------------------------------------|----------------------------|
------------------------------------|----------------------------|
--17h-19p-17p-0-0--0--19p-17h-19p-0-|--19p-17h-19p-0-0--0--0--0--|


   E   E   E   E   E   E     Q    E  E   S   S   S  S  
--------------------------|---------------------------|
--13--13--13--15--15--15--|---------------------------|
--12--12--12--14--14--14--|---------------------------|
--10--10--10--12--12--12--|---------------------------|
--------------------------|---------------------------|
--------------------------|--0----0--0--17h-19p-17p-0-|


   S   S   S  S E  E   S   S   S  S     S   S   S  S E  E  E  E   
------------------------------------|----------------------------|
------------------------------------|----------------------------|
------------------------------------|----------------------------|
------------------------------------|----------------------------|
------------------------------------|----------------------------|
--17h-19p-17p-0-0--0--19p-17h-19p-0-|--19p-17h-19p-0-0--0--0--0--|


  E  E  E  E  E  E     Q    E  E   S   S   S  S  
--------------------|---------------------------|
--------------------|---------------------------|
--5--5--5--7--7--7--|---------------------------|
--5--5--5--7--7--7--|---------------------------|
--3--3--3--5--5--5--|---------------------------|
--------------------|--0----0--0--17h-19p-17p-0-|


   S   S   S  S E  E   S   S   S  S     S   S   S  S E  E  E  E   
------------------------------------|----------------------------|
------------------------------------|----------------------------|
------------------------------------|----------------------------|
------------------------------------|----------------------------|
------------------------------------|----------------------------|
--17h-19p-17p-0-0--0--19p-17h-19p-0-|--19p-17h-19p-0-0--0--0--0--|


                       W      W         W      W         W      W       
  E  E  E  E  E  E     Q.     Q.        Q.     Q.        Q.     Q.      
--------------------|----------------|----------------|----------------|
--------------------|----------------|----------------|----------------|
--5--5--5--7--7--7--|--9-------------|---------9------|----------------|
--5--5--5--7--7--7--|---------9------|----------------|--9-------------|
--3--3--3--5--5--5--|----------------|--7-------------|---------7------|
--------------------|----------------|----------------|----------------|


  W      W         W      W         W      W         W       W       
  Q.     Q.        Q.     Q.        Q.     Q.        Q.      Q.      
----------------|----------------|----------------|-----------------|
---------8------|----------------|---------8------|---------11------|
--9-------------|----------------|--9-------------|--9--------------|
----------------|---------9------|----------------|-----------------|
----------------|--7-------------|----------------|-----------------|
----------------|----------------|----------------|-----------------|


  W      W         W      W         W      W         W      W       
  Q.     Q.        Q.     Q.        Q.     Q.        Q.     Q.      
----------------|----------------|----------------|----------------|
----------------|--8-------------|----------------|----------------|
--9------9------|---------9------|----------------|--9-------------|
----------------|----------------|--9-------------|---------9------|
----------------|----------------|---------7------|----------------|
----------------|----------------|----------------|----------------|


  W      W         W      W         W      W         W       W       
  Q.     Q.        Q.     Q.        Q.     Q.        Q.      Q.      
----------------|----------------|----------------|-----------------|
----------------|----------------|---------8------|---------12------|
---------9------|----------------|--9-------------|--9--------------|
----------------|--9-------------|----------------|-----------------|
--7-------------|---------7------|----------------|-----------------|
----------------|----------------|----------------|-----------------|


  W                                                            
  H.              E   E  E   E   E   E      E  Q    E  Q       
---------------|------------------------|---------------------|
--8------------|------------------------|---------------------|
---------------|--9--11--9--------------|---------------------|
---------------|------------12--11--12--|--11--9--------------|
---------------|------------------------|-----------7--7br----|
---------------|------------------------|-----------0--0------|


  Q    E  E  Q         Q    E  E  Q         E   E  E   E   E   E   
--------------------|--------------------|------------------------|
--------------------|--------------------|------------------------|
--------------------|--------------------|--9--11--9--------------|
--------------------|--------------------|------------12--11--12--|
--L----7--7--7br----|--L----7--7--7br----|------------------------|
--L----0--0--0------|--L----0--0--0------|------------------------|


   E  Q    E  Q         Q    E  E  Q         Q    E  E  Q       
---------------------|--------------------|--------------------|
---------------------|--------------------|--------------------|
---------------------|--------------------|--------------------|
--11--9--------------|--------------------|--------------------|
-----------7--7br----|--L----7--7--7br----|--L----7--7--7br----|
-----------0--0------|--L----0--0--0------|--L----0--0--0------|


  E   E  E   E   E   E      E  Q    E  Q         Q    E  E  Q       
------------------------|---------------------|--------------------|
------------------------|---------------------|--------------------|
--9--11--9--------------|---------------------|--------------------|
------------12--11--12--|--11--9--------------|--------------------|
------------------------|-----------7--7br----|--L----7--7--7br----|
------------------------|-----------0--0------|--L----0--0--0------|


  Q    E  E  Q         E   E  E   E   E   E      E  Q    E  Q       
--------------------|------------------------|---------------------|
--------------------|------------------------|---------------------|
--------------------|--9--11--9--------------|---------------------|
--------------------|------------12--11--12--|--11--9--------------|
--L----7--7--7br----|------------------------|-----------7--7br----|
--L----0--0--0------|------------------------|-----------0--0------|


  Q    E  E  Q         Q    E  E  Q         E   E  E   E   E   E   
--------------------|--------------------|------------------------|
--------------------|--------------------|------------------------|
--------------------|--------------------|--9--11--9--------------|
--------------------|--------------------|------------12--11--12--|
--L----7--7--7br----|--L----7--7--7br----|------------------------|
--L----0--0--0------|--L----0--0--0------|------------------------|


       PM PM PM PM         PM PM PM PM         PM    PM     
  Q    E  E  E  E     Q    E  E  E  E     Q    E  E  E  E   
-------------------|-------------------|-------------------|
-------------------|-------------------|-------------------|
-------------------|-------------------|-------------------|
--2----2--2--2--2--|--2----2--2--2--2--|--2----2--2--2--2--|
--2----2--2--2--2--|--2----2--2--2--2--|--2----2--2--2--2--|
--0----0--0--0--0--|--0----0--0--0--0--|--0----0--0--0--0--|


                            PM PM PM PM         PM PM PM PM  
  E  E  E  E  E  E     Q    E  E  E  E     Q    E  E  E  E   
--------------------|-------------------|-------------------|
--------------------|-------------------|-------------------|
--5--5--5--4--4--4--|-------------------|-------------------|
--5--5--5--4--4--4--|--2----2--2--2--2--|--2----2--2--2--2--|
--3--3--3--2--2--2--|--2----2--2--2--2--|--2----2--2--2--2--|
--------------------|--0----0--0--0--0--|--0----0--0--0--0--|


       PM    PM                                 PM PM PM PM  
  Q    E  E  E  E     E  E  E  E  E  E     Q    E  E  E  E   
-------------------|--------------------|-------------------|
-------------------|--------------------|-------------------|
-------------------|--5--5--5--4--4--4--|-------------------|
--2----2--2--2--2--|--5--5--5--4--4--4--|--2----2--2--2--2--|
--2----2--2--2--2--|--3--3--3--2--2--2--|--2----2--2--2--2--|
--0----0--0--0--0--|--------------------|--0----0--0--0--0--|


       PM PM PM PM         PM    PM                          
  Q    E  E  E  E     Q    E  E  E  E     E  E  E  E  E  E   
-------------------|-------------------|--------------------|
-------------------|-------------------|--------------------|
-------------------|-------------------|--5--5--5--4--4--4--|
--2----2--2--2--2--|--2----2--2--2--2--|--5--5--5--4--4--4--|
--2----2--2--2--2--|--2----2--2--2--2--|--3--3--3--2--2--2--|
--0----0--0--0--0--|--0----0--0--0--0--|--------------------|


  E  E  E   E   E   E     E  E  E   E   E   E     E  E  E   E   E   E   
-----------------------|-----------------------|-----------------------|
-----------------------|-----------------------|-----------------------|
--7--7--7--10--10--10--|--9--9--9--10--10--10--|--7--7--7--10--10--10--|
--7--7--7--10--10--10--|--9--9--9--10--10--10--|--7--7--7--10--10--10--|
--5--5--5---8---8---8--|--7--7--7---8---8---8--|--5--5--5---8---8---8--|
-----------------------|-----------------------|-----------------------|


                               PM PM PM PM         PM PM PM PM  
  E  E  E   E   E   E     Q    E  E  E  E     Q    E  E  E  E   
-----------------------|-------------------|-------------------|
-----------------------|-------------------|-------------------|
--9--9--9--10--10--10--|-------------------|-------------------|
--9--9--9--10--10--10--|--2----2--2--2--2--|--2----2--2--2--2--|
--7--7--7---8---8---8--|--2----2--2--2--2--|--2----2--2--2--2--|
-----------------------|--0----0--0--0--0--|--0----0--0--0--0--|


       PM    PM                                 PM PM PM PM  
  Q    E  E  E  E     E  E  E  E  E  E     Q    E  E  E  E   
-------------------|--------------------|-------------------|
-------------------|--------------------|-------------------|
-------------------|--5--5--5--4--4--4--|-------------------|
--2----2--2--2--2--|--5--5--5--4--4--4--|--2----2--2--2--2--|
--2----2--2--2--2--|--3--3--3--2--2--2--|--2----2--2--2--2--|
--0----0--0--0--0--|--------------------|--0----0--0--0--0--|


       PM PM PM PM         PM    PM                          
  Q    E  E  E  E     Q    E  E  E  E     E  E  E  E  E  E   
-------------------|-------------------|--------------------|
-------------------|-------------------|--------------------|
-------------------|-------------------|--5--5--5--4--4--4--|
--2----2--2--2--2--|--2----2--2--2--2--|--5--5--5--4--4--4--|
--2----2--2--2--2--|--2----2--2--2--2--|--3--3--3--2--2--2--|
--0----0--0--0--0--|--0----0--0--0--0--|--------------------|


       PM PM PM PM         PM PM PM PM         PM    PM     
  Q    E  E  E  E     Q    E  E  E  E     Q    E  E  E  E   
-------------------|-------------------|-------------------|
-------------------|-------------------|-------------------|
-------------------|-------------------|-------------------|
--2----2--2--2--2--|--2----2--2--2--2--|--2----2--2--2--2--|
--2----2--2--2--2--|--2----2--2--2--2--|--2----2--2--2--2--|
--0----0--0--0--0--|--0----0--0--0--0--|--0----0--0--0--0--|


  E  E  E  E  E  E     E  E  E   E   E   E     E  E  E   E   E   E   
--------------------|-----------------------|-----------------------|
--------------------|-----------------------|-----------------------|
--5--5--5--4--4--4--|--7--7--7--10--10--10--|--9--9--9--10--10--10--|
--5--5--5--4--4--4--|--7--7--7--10--10--10--|--9--9--9--10--10--10--|
--3--3--3--2--2--2--|--5--5--5---8---8---8--|--7--7--7---8---8---8--|
--------------------|-----------------------|-----------------------|


  E  E  E   E   E   E     E  E  E   E   E   E     H.              H.            
--------------------|-----------------------|---------------|---------------|
--------------------|-----------------------|---------------|---------------|
7--7--7--10--10--10-|--9--9--9--10--10--10--|---------------|---------------|
7--7--7--10--10--10-|--9--9--9--10--10--10--|---------------|---------------|
5--5--5---8---8---8-|--7--7--7---8---8---8--|---------------|---------------|
--------------------|-----------------------|--0------------|--L------------|


   H.                H.                H.               H.             
-----------------|-----------------|-----------------|----------------|
-----------------|-----------------|-----------------|----------------|
-----------------|-----------------|-----------------|----------------|
-----------------|-----------------|-----------------|----------------|
-----------------|-----------------|-----------------|----------------|
--(0)------------|--(0)------------|--(0)------------|--0s------------|


   H.                H.                 H.                 H         Q      
----------------|------------------|-------------------|-------------------|
----------------|------------------|-------------------|-------------------|
----------------|------------------|-------------------|-------------------|
----------------|------------------|-------------------|-------------------|
----------------|------------------|-------------------|-------------------|
--12------------|--(12)------------|--(12)s------------|---L--------(5)----|


   Q.        Q.         H.                                            
---------------------|---------------|---------------|---------------|
---------------------|---------------|---------------|---------------|
---------------------|---------------|---------------|---------------|
---------------------|---------------|---------------|---------------|
---------------------|---------------|---------------|---------------|
--(5)s------(0)------|--L------------|---------------|---------------|


------------|---------------|---------------|---------------|---------------|
------------|---------------|---------------|---------------|---------------|
------------|---------------|---------------|---------------|---------------|
------------|---------------|---------------|---------------|---------------|
------------|---------------|---------------|---------------|---------------|
------------|---------------|---------------|---------------|---------------|


------------|---------------|---------------|---------------|---------------|
------------|---------------|---------------|---------------|---------------|
------------|---------------|---------------|---------------|---------------|
------------|---------------|---------------|---------------|---------------|
------------|---------------|---------------|---------------|---------------|
------------|---------------|---------------|---------------|---------------|


                                   E   E   E   Q     E   
---------------|---------------|------------------------|
---------------|---------------|------------------------|
---------------|---------------|--15--15--15--15----15--|
---------------|---------------|------------------------|
---------------|---------------|--13--13--13--13----13--|
---------------|---------------|------------------------|


   E   E   E   Q     E      E   E   E   E   E   E     E  E  E  E  E  E   
------------------------|--------------------------|--------------------|
------------------------|--------------------------|--------------------|
--12--12--12--12----12--|--14--14--14--14--14--14--|--------------------|
------------------------|--------------------------|--------------------|
--10--10--10--10----10--|--12--12--12--12--12--12--|--8--7--8--7--8--7--|
------------------------|--------------------------|--0--0--0--0--0--0--|


   E   E   E   Q     E      E   E   E   Q     E      E   E   E   E   E   E   
------------------------|------------------------|--------------------------|
------------------------|------------------------|--------------------------|
--15--15--15--15----15--|--12--12--12--12----12--|--14--14--14--14--14--14--|
------------------------|------------------------|--------------------------|
--13--13--13--13----13--|--10--10--10--10----10--|--12--12--12--12--12--12--|
------------------------|------------------------|--------------------------|


  E  E  E  E  E  E      E   E   E   Q     E      E   E   E   Q     E   
--------------------|------------------------|------------------------|
--------------------|------------------------|------------------------|
--------------------|--15--15--15--15----15--|--12--12--12--12----12--|
--------------------|------------------------|------------------------|
--8--7--8--7--8--7--|--13--13--13--13----13--|--10--10--10--10----10--|
--0--0--0--0--0--0--|------------------------|------------------------|


   E   E   E   E   E   E     E  E  E  E  E  E      E   E   E   Q     E   
--------------------------|--------------------|------------------------|
--------------------------|--------------------|------------------------|
--14--14--14--14--14--14--|--------------------|--15--15--15--15----15--|
--------------------------|--------------------|------------------------|
--12--12--12--12--12--12--|--8--7--8--7--8--7--|--13--13--13--13----13--|
--------------------------|--0--0--0--0--0--0--|------------------------|


   E   E   E   Q     E      E   E   E   E   E   E     E  E  E  E  E  E   
------------------------|--------------------------|--------------------|
------------------------|--------------------------|--------------------|
--12--12--12--12----12--|--14--14--14--14--14--14--|--------------------|
------------------------|--------------------------|--------------------|
--10--10--10--10----10--|--12--12--12--12--12--12--|--8--7--8--7--8--7--|
------------------------|--------------------------|--0--0--0--0--0--0--|


                                \6        \6/             \6/           
  E  E  E  E  E  E      Q.      Q.        H.              H.            
--------------------|------------------|---------------|---------------|
--------------------|------------------|---------------|---------------|
--5--5--5--7--7--7--|------------------|---------------|---------------|
--5--5--5--7--7--7--|------------------|---------------|---------------|
--3--3--3--5--5--5--|------------------|---------------|---------------|
--------------------|--12s------0------|--0------------|--0------------|


  \6/             \6/              \6/              -/6           
  H.              H.               H.               H.            
---------------|---------------|--12------------|--12------------|
---------------|---------------|--12------------|--12------------|
---------------|---------------|----------------|----------------|
---------------|---------------|----------------|----------------|
---------------|---------------|----------------|----------------|
--0------------|--0------------|---0------------|---0------------|


   \1/                \1/                \1/                \1/                 
   H.                 H.                 H.                 H.                  
12-----------|--<>19------------|--<>19------------|--<>19------------|-----|
12-----------|------------------|------------------|------------------|-----|
-------------|------------------|------------------|------------------|-----|
-------------|------------------|------------------|------------------|-----|
-------------|------------------|------------------|------------------|-----|
-------------|------------------|------------------|------------------|-----|


          NH       NH          NH       NH          NH            
          Q.       Q.          Q.       Q.          H.            
-----|--------------------|--------------------|-----------------|
-----|-----------<>7------|--------------------|--<>5------------|
-----|--<>5---------------|--<>7------<>5------|-----------------|
-----|--------------------|--------------------|-----------------|
-----|--------------------|--------------------|-----------------|
-----|--------------------|--------------------|-----------------|


   E    E  E  E  E  E     E  E  E  E  E  E     E  E  E  E  E  E   
-----------------------|--------------------|--------------------|
-----------------------|--------------------|--------------------|
--12p--11--------------|--------------------|--------------------|
-----------------------|--------------------|--------------------|
-----------------------|--------------------|--------------------|
-----------0--0--0--0--|--0--0--0--0--0--0--|--0--0--0--0--0--0--|


  H         E    E     E   E   E  E  E   E     E   E   E  E  Q     
--------------------|-----------------------|---------------------|
--------------------|-----------------------|---------------------|
-----------12p--11--|----------------9p--7--|-----11p--7-----9----|
--------------------|-----12p--9------------|---------------------|
--------------------|-----------------------|---------------------|
--0-----------------|--0----------0---------|--0----------0-------|


  H.               E    E  E   E   E  E      E   E  E   E   S   E.   
---------------|-------------------------|--------------------------|
---------------|-------------------------|--------------------------|
--L------------|--12p--11----------------|-----------------11h-12---|
---------------|--------------12p--9-----|--10p--9-----10-----------|
---------------|-------------------------|--------------------------|
---------------|-----------0----------0--|----------0---------------|


   E    E  E   S   E.  E      E    E  E   E   E  E      E    E  E   E    E  E   
-----------------------|-------------------------|--------------------------|
-----------------------|-------------------------|--------------------------|
14p--12-----11h-12-----|--12p--11----------------|--------------------------|
-----------------------|--------------12p--9-----|--10h--12-----10h--12-----|
-----------------------|-------------------------|--------------------------|
--------0-----------0--|-----------0----------0--|-----------0-----------0--|


   E   E  E   S   E.   E       E  E   E   S  E.  E      E    E  E   E   E  E   
-------------------------|------------------------|-------------------------|
-------------------------|------------------------|-------------------------|
-----------11h-12---14h--|--12-----11--11-12------|--12p--11----------------|
10p--9-------------------|------------------------|--------------12p--9-----|
-------------------------|------------------------|-------------------------|
--------0----------------|------0--------------0--|-----------0----------0--|


   E   E  E   E    E   E      E   E   E   E   E   E   
--------------------------|--------------------------|
--------------------------|--------------------------|
--11p--9-----12p--11------|--12--12--12--12--12--12--|
----------------------10--|---x---x---x---x---x---x--|
--------------------------|--10--10--10--10--10--10--|
----------0---------------|--------------------------|


   E   E   E   E   E   E     E   E   E  E   E  E     E   E   E  E   E  E   
--------------------------|-----------------------|-----------------------|
--------------------------|-----------------------|-----------------------|
--12--12--12--12--12--12--|-----12--11------------|-----11---------11--9--|
---x---x---x---x---x---x--|----------------12--9--|---------12--9---------|
--10--10--10--10--10--10--|-----------------------|-----------------------|
--------------------------|--0----------0---------|--0--------------------|


   E   E   E   E   E   E      E   E   E   E   E   E   
--------------------------|--------------------------|
--------------------------|--------------------------|
--12--12--12--12--12--12--|--12--12--12--12--12--12--|
---x---x---x---x---x---x--|---x---x---x---x---x---x--|
--10--10--10--10--10--10--|--10--10--10--10--10--10--|
--------------------------|--------------------------|


   E   E   E   E   E   E      E   E   E   E   E   E      E    E  E   E   E  E   
-----------------------|--------------------------|-------------------------|
-----------------------|--------------------------|-------------------------|
15--15--15--15--15--15-|--15--15--15--15--15--16--|--12p--11----------------|
-x---x---x---x---x---x-|---x---x---x---x---x---x--|--------------12p--9-----|
13--13--13--13--13--13-|--13--13--13--13--13--14--|-------------------------|
-----------------------|--------------------------|-----------0----------0--|


   E   S  E.   E    E  E      E    E  E   E   E  E      E    E  E   E    E  E   
-----------------------|-------------------------|--------------------------|
-----------------------|-------------------------|--------------------------|
---11-12---14p--12-----|--12p--11----------------|--------------------------|
10---------------------|--------------12p--9-----|--10h--12-----10h--12-----|
-----------------------|-------------------------|--------------------------|
--------------------0--|-----------0----------0--|-----------0-----------0--|


   E   E  E   S   E.   E       E  E   E   S  E.  E      E    E  E   E   E  E   
-------------------------|------------------------|-------------------------|
-------------------------|------------------------|-------------------------|
-----------11h-12---14h--|--12-----11--11-12------|--12p--11----------------|
10p--9-------------------|------------------------|--------------12p--9-----|
-------------------------|------------------------|-------------------------|
--------0----------------|------0--------------0--|-----------0----------0--|


   E   E  E   E    E   E      E   E   E   E   E   E   
--------------------------|--------------------------|
--------------------------|--------------------------|
--11p--9-----12p--11------|--12--12--12--12--12--12--|
----------------------10--|---x---x---x---x---x---x--|
--------------------------|--10--10--10--10--10--10--|
----------0---------------|--------------------------|


   E   E   E   E   E   E     E   E   E  E   E  E     E   E  E   E   E  E   
--------------------------|-----------------------|-----------------------|
--------------------------|-----------------------|-----------------------|
--12--12--12--12--12--12--|-----12--11------------|----------------11--9--|
---x---x---x---x---x---x--|----------------12--9--|-----12--9--12---------|
--10--10--10--10--10--10--|-----------------------|-----------------------|
--------------------------|--0----------0---------|--0--------------------|


   E   E   E   E   E   E      E   E   E   E   E   E   
--------------------------|--------------------------|
--------------------------|--------------------------|
--12--12--12--12--12--12--|--12--12--12--12--12--12--|
---x---x---x---x---x---x--|---x---x---x---x---x---x--|
--10--10--10--10--10--10--|--10--10--10--10--10--10--|
--------------------------|--------------------------|


                                                                     NH     
   E   E   E   E   E   E      E   E   E   E   E   E     Q    E  E    E  E   
--------------------------|--------------------------|-------------<>5-----|
--------------------------|--------------------------|-------------<>5-----|
--15--15--15--15--15--15--|--15--15--15--15--15--16--|---------------------|
---x---x---x---x---x---x--|---x---x---x---x---x---x--|--2----2--2-------2--|
--13--13--13--13--13--13--|--13--13--13--13--13--14--|--2----2--2-------2--|
--------------------------|--------------------------|--0----0--0-------0--|


             NH                 NH                          NH     
  E  E  E    E  Q       E  E    Q    E  E     E  E  E  E    E  E   
-----------<>5-------|--------<>5----------|--------------<>5-----|
-----------<>5-------|--------<>5----------|--------------<>5-----|
---------------------|---------------------|----------------------|
-----2--2-------2----|--2--2---------2--2--|--2--2--2--2-------2--|
-----2--2-------2----|--2--2---------2--2--|--2--2--2--2-------2--|
--L--0--0-------0----|--0--0---------0--0--|--0--0--0--0-------0--|


               NH                  NH                 NH          
  Q    E  E    E  E     E  E  E    E  Q       E  E    Q    E  E   
-------------<>5-----|-----------<>5-------|--------<>5----------|
-------------<>5-----|-----------<>5-------|--------<>5----------|
---------------------|---------------------|---------------------|
--2----2--2-------2--|-----2--2-------2----|--2--2---------2--2--|
--2----2--2-------2--|-----2--2-------2----|--2--2---------2--2--|
--0----0--0-------0--|--L--0--0-------0----|--0--0---------0--0--|


                NH                    NH                  NH       
  E  E  E  E    E  E     Q    E  E    E  E     E  E  E    E  Q     
--------------<>5-----|-------------<>5-----|-----------<>5-------|
--------------<>5-----|-------------<>5-----|-----------<>5-------|
----------------------|---------------------|---------------------|
--2--2--2--2-------2--|--2----2--2-------2--|-----2--2-------2----|
--2--2--2--2-------2--|--2----2--2-------2--|-----2--2-------2----|
--0--0--0--0-------0--|--0----0--0-------0--|--L--0--0-------0----|


          NH                          NH                    NH     
  E  E    Q    E  E     E  E  E  E    E  E     Q    E  E    E  E   
--------<>5----------|--------------<>5-----|-------------<>5-----|
--------<>5----------|--------------<>5-----|-------------<>5-----|
---------------------|----------------------|---------------------|
--2--2---------2--2--|--2--2--2--2-------2--|--2----2--2-------2--|
--2--2---------2--2--|--2--2--2--2-------2--|--2----2--2-------2--|
--0--0---------0--0--|--0--0--0--0-------0--|--0----0--0-------0--|


             NH                 NH                          NH            
  E  E  E    E  Q       E  E    Q    E  E     E  E  E  E    E  E     E    
-----------<>5-------|--------<>5----------|--------------<>5-----|-----||
-----------<>5-------|--------<>5----------|--------------<>5-----|-----||
---------------------|---------------------|----------------------|-----||
-----2--2-------2----|--2--2---------2--2--|--2--2--2--2-------2--|--2--||
-----2--2-------2----|--2--2---------2--2--|--2--2--2--2-------2--|--2--||
--L--0--0-------0----|--0--0---------0--0--|--0--0--0--0-------0--|--0--||





----------------------
----------------------
Bass
----------------------
----------------------

G||-------|-------|-------|-------|-------|-------|-------|-------|-------|
D||-------|-------|-------|-------|-------|-------|-------|-------|-------|
A||-------|-------|-------|-------|-------|-------|-------|-------|-------|
E||-------|-------|-------|-------|-------|-------|-------|-------|-------|


                                                          E  E  E   E   E   E   
----|-------|-------|-------|-------|-------|-------|-----------------------|
----|-------|-------|-------|-------|-------|-------|-----------------------|
----|-------|-------|-------|-------|-------|-------|-----------------------|
----|-------|-------|-------|-------|-------|-------|--0--0--0--12--12--12--|


  E  E  E   E   E   E     E  E  E   E   E   E      E   E   E   E   E   E   
-----------------------|-----------------------|--------------------------|
-----------------------|-----------------------|--------------------------|
-----------------------|-----------------------|--------------------------|
--0--0--0--10--10--10--|--0--0--0--12--12--12--|--13--12--13--12--13--12--|


  E  E  E   E   E   E     E  E  E   E   E   E     E  E  E   E   E   E   
-----------------------|-----------------------|-----------------------|
-----------------------|-----------------------|-----------------------|
-----------------------|-----------------------|-----------------------|
--0--0--0--12--12--12--|--0--0--0--10--10--10--|--0--0--0--12--12--12--|


   E   E   E   E   E   E     E  E  E   E   E   E     E  E  E   E   E   E   
--------------------------|-----------------------|-----------------------|
--------------------------|-----------------------|-----------------------|
--------------------------|-----------------------|-----------------------|
--13--12--13--12--13--12--|--0--0--0--12--12--12--|--0--0--0--10--10--10--|


  E  E  E   E   E   E      E   E   E   E   E   E     E  E  E   E   E   E   
-----------------------|--------------------------|-----------------------|
-----------------------|--------------------------|-----------------------|
-----------------------|--------------------------|-----------------------|
--0--0--0--12--12--12--|--13--12--13--12--13--12--|--0--0--0--12--12--12--|


  E  E  E   E   E   E     E  E  E   E   E   E      E   E   E   E   E   E   
-----------------------|-----------------------|--------------------------|
-----------------------|-----------------------|--------------------------|
-----------------------|-----------------------|--------------------------|
--0--0--0--10--10--10--|--0--0--0--12--12--12--|--13--12--13--12--13--12--|


  E  E  E  E  E  E     Q    E  E  Q         Q    E  E  Q       
--------------------|--------------------|--------------------|
--------------------|--------------------|--------------------|
--3--3--3--5--5--5--|--7----7--7--7br----|--L----7--7--7br----|
--------------------|--0----0--0--0------|--L----0--0--0------|


  Q    E  E  Q       E  E  E  E  E  E     Q    E  E  Q       
------------------|--------------------|--------------------|
------------------|--------------------|--------------------|
--L----7--7--7----|--3--3--3--5--5--5--|--7----7--7--7br----|
--L----0--0--0----|--------------------|--0----0--0--0------|


  Q    E  E  Q         Q    E  E  Q       E  E  E  E  E  E   
--------------------|------------------|--------------------|
--------------------|------------------|--------------------|
--L----7--7--7br----|--L----7--7--7----|--3--3--3--5--5--5--|
--L----0--0--0------|--L----0--0--0----|--------------------|


  Q    E  E  Q         Q    E  E  Q         Q    E  E  Q     
--------------------|--------------------|------------------|
--------------------|--------------------|------------------|
--7----7--7--7br----|--L----7--7--7br----|--L----7--7--7----|
--0----0--0--0------|--L----0--0--0------|--L----0--0--0----|


  E  E  E  E  E  E     Q    E  E  Q         Q    E  E  Q       
--------------------|--------------------|--------------------|
--------------------|--------------------|--------------------|
--3--3--3--5--5--5--|--7----7--7--7br----|--L----7--7--7br----|
--------------------|--0----0--0--0------|--L----0--0--0------|


  Q    E  E  Q       E  E  E  E  E  E     E  E  E   E   E   E   
------------------|--------------------|-----------------------|
------------------|--------------------|-----------------------|
--L----7--7--7----|--3--3--3--5--5--5--|-----------------------|
--L----0--0--0----|--------------------|--0--0--0--12--12--12--|


  E  E  E   E   E   E     E  E  E   E   E   E      E   E   E   E   E   E   
-----------------------|-----------------------|--------------------------|
-----------------------|-----------------------|--------------------------|
-----------------------|-----------------------|--------------------------|
--0--0--0--10--10--10--|--0--0--0--12--12--12--|--13--12--13--12--13--12--|


  E  E  E   E   E   E     E  E  E   E   E   E     E  E  E   E   E   E   
-----------------------|-----------------------|-----------------------|
-----------------------|-----------------------|-----------------------|
-----------------------|-----------------------|-----------------------|
--0--0--0--12--12--12--|--0--0--0--10--10--10--|--0--0--0--12--12--12--|


   E   E   E   E   E   E     E  E  E   E   E   E     E  E  E   E   E   E   
--------------------------|-----------------------|-----------------------|
--------------------------|-----------------------|-----------------------|
--------------------------|-----------------------|-----------------------|
--13--12--13--12--13--12--|--0--0--0--12--12--12--|--0--0--0--10--10--10--|


  E  E  E   E   E   E      E   E   E   E   E   E     E  E  E   E   E   E   
-----------------------|--------------------------|-----------------------|
-----------------------|--------------------------|-----------------------|
-----------------------|--------------------------|-----------------------|
--0--0--0--12--12--12--|--13--12--13--12--13--12--|--0--0--0--12--12--12--|


  E  E  E   E   E   E     E  E  E   E   E   E      E   E   E   E   E   E   
-----------------------|-----------------------|--------------------------|
-----------------------|-----------------------|--------------------------|
-----------------------|-----------------------|--------------------------|
--0--0--0--10--10--10--|--0--0--0--12--12--12--|--13--12--13--12--13--12--|


  E  E  E  E  E  E     Q    E  E  Q         Q    E  E  Q       
--------------------|--------------------|--------------------|
--------------------|--------------------|--------------------|
--3--3--3--5--5--5--|--7----7--7--7br----|--L----7--7--7br----|
--------------------|--0----0--0--0------|--L----0--0--0------|


  Q    E  E  Q       E  E  E  E  E  E     Q    E  E  Q       
------------------|--------------------|--------------------|
------------------|--------------------|--------------------|
--L----7--7--7----|--3--3--3--5--5--5--|--7----7--7--7br----|
--L----0--0--0----|--------------------|--0----0--0--0------|


  Q    E  E  Q         Q    E  E  Q       E  E  E  E  E  E   
--------------------|------------------|--------------------|
--------------------|------------------|--------------------|
--L----7--7--7br----|--L----7--7--7----|--3--3--3--5--5--5--|
--L----0--0--0------|--L----0--0--0----|--------------------|


  Q    E  E  Q         Q    E  E  Q         Q    E  E  Q     
--------------------|--------------------|------------------|
--------------------|--------------------|------------------|
--7----7--7--7br----|--L----7--7--7br----|--L----7--7--7----|
--0----0--0--0------|--L----0--0--0------|--L----0--0--0----|


  E  E  E  E  E  E     Q    E  E  Q         Q    E  E  Q       
--------------------|--------------------|--------------------|
--------------------|--------------------|--------------------|
--3--3--3--5--5--5--|--7----7--7--7br----|--L----7--7--7br----|
--------------------|--0----0--0--0------|--L----0--0--0------|


  Q    E  E  Q       E  E  E  E  E  E     E  E  E  E  E  E   
------------------|--------------------|--------------------|
------------------|--------------------|--------------------|
--L----7--7--7----|--3--3--3--5--5--5--|--------------------|
--L----0--0--0----|--------------------|--0--0--0--0--0--0--|


  E  E  E  E  E  E     E  E  E  E  E  E     E  E  E  E  E  E   
--------------------|--------------------|--------------------|
--------------------|--------------------|--------------------|
--------------------|--------------------|--3--3--3--2--2--2--|
--0--0--0--0--0--0--|--0--0--0--0--0--0--|--------------------|


  E  E  E  E  E  E     E  E  E  E  E  E     E  E  E  E  E  E   
--------------------|--------------------|--------------------|
--------------------|--------------------|--------------------|
--------------------|--------------------|--------------------|
--0--0--0--0--0--0--|--0--0--0--0--0--0--|--0--0--0--0--0--0--|


  E  E  E  E  E  E     E  E  E  E  E  E     E  E  E  E  E  E   
--------------------|--------------------|--------------------|
--------------------|--------------------|--------------------|
--3--3--3--2--2--2--|--------------------|--------------------|
--------------------|--0--0--0--0--0--0--|--0--0--0--0--0--0--|


  E  E  E  E  E  E     E  E  E  E  E  E     E  E  E  E  E  E   
--------------------|--------------------|--------------------|
--------------------|--------------------|--------------------|
--------------------|--3--3--3--2--2--2--|--5--5--5--8--8--8--|
--0--0--0--0--0--0--|--------------------|--------------------|


  E  E  E  E  E  E     E  E  E  E  E  E     E  E  E  E  E  E   
--------------------|--------------------|--------------------|
--------------------|--------------------|--------------------|
--7--7--7--8--8--8--|--5--5--5--8--8--8--|--7--7--7--8--8--8--|
--------------------|--------------------|--------------------|


  E  E  E  E  E  E     E  E  E  E  E  E     E  E  E  E  E  E   
--------------------|--------------------|--------------------|
--------------------|--------------------|--------------------|
--------------------|--------------------|--------------------|
--0--0--0--0--0--0--|--0--0--0--0--0--0--|--0--0--0--0--0--0--|


  E  E  E  E  E  E     E  E  E  E  E  E     E  E  E  E  E  E   
--------------------|--------------------|--------------------|
--------------------|--------------------|--------------------|
--3--3--3--2--2--2--|--------------------|--------------------|
--------------------|--0--0--0--0--0--0--|--0--0--0--0--0--0--|


  E  E  E  E  E  E     E  E  E  E  E  E     E  E  E  E  E  E   
--------------------|--------------------|--------------------|
--------------------|--------------------|--------------------|
--------------------|--3--3--3--2--2--2--|--------------------|
--0--0--0--0--0--0--|--------------------|--0--0--0--0--0--0--|


  E  E  E  E  E  E     E  E  E  E  E  E     E  E  E  E  E  E   
--------------------|--------------------|--------------------|
--------------------|--------------------|--------------------|
--------------------|--------------------|--3--3--3--2--2--2--|
--0--0--0--0--0--0--|--0--0--0--0--0--0--|--------------------|


  E  E  E  E  E  E     E  E  E  E  E  E     E  E  E  E  E  E   
--------------------|--------------------|--------------------|
--------------------|--------------------|--------------------|
--5--5--5--8--8--8--|--7--7--7--3--3--3--|--5--5--5--8--8--8--|
--------------------|--------------------|--------------------|


  E  E  E  E  E  E     H.              H.              H.            
--------------------|---------------|---------------|---------------|
--------------------|---------------|---------------|---------------|
--7--7--7--3--3--3--|---------------|---------------|---------------|
--------------------|--0------------|--L------------|--L------------|


  H.                                                                            
------------|---------------|---------------|---------------|-------|-------|
------------|---------------|---------------|---------------|-------|-------|
------------|---------------|---------------|---------------|-------|-------|
L-----------|---------------|---------------|---------------|-------|-------|


----|-------|-------|-------|-------|-------|-------|-------|-------|-------|
----|-------|-------|-------|-------|-------|-------|-------|-------|-------|
----|-------|-------|-------|-------|-------|-------|-------|-------|-------|
----|-------|-------|-------|-------|-------|-------|-------|-------|-------|


                                                          E  E  E   E   E   E   
----|-------|-------|-------|-------|-------|-------|-----------------------|
----|-------|-------|-------|-------|-------|-------|-----------------------|
----|-------|-------|-------|-------|-------|-------|-----------------------|
----|-------|-------|-------|-------|-------|-------|--0--0--0--12--12--12--|


  E  E  E   E   E   E     E  E  E   E   E   E      E   E   E   E   E   E   
-----------------------|-----------------------|--------------------------|
-----------------------|-----------------------|--------------------------|
-----------------------|-----------------------|--------------------------|
--0--0--0--10--10--10--|--0--0--0--12--12--12--|--13--12--13--12--13--12--|


  E  E  E   E   E   E     E  E  E   E   E   E     E  E  E   E   E   E   
-----------------------|-----------------------|-----------------------|
-----------------------|-----------------------|-----------------------|
-----------------------|-----------------------|-----------------------|
--0--0--0--12--12--12--|--0--0--0--10--10--10--|--0--0--0--12--12--12--|


   E   E   E   E   E   E     E  E  E   E   E   E     E  E  E   E   E   E   
--------------------------|-----------------------|-----------------------|
--------------------------|-----------------------|-----------------------|
--------------------------|-----------------------|-----------------------|
--13--12--13--12--13--12--|--0--0--0--12--12--12--|--0--0--0--10--10--10--|


  E  E  E   E   E   E      E   E   E   E   E   E     E  E  E   E   E   E   
-----------------------|--------------------------|-----------------------|
-----------------------|--------------------------|-----------------------|
-----------------------|--------------------------|-----------------------|
--0--0--0--12--12--12--|--13--12--13--12--13--12--|--0--0--0--12--12--12--|


  E  E  E   E   E   E     E  E  E   E   E   E      E   E   E   E   E   E   
-----------------------|-----------------------|--------------------------|
-----------------------|-----------------------|--------------------------|
-----------------------|-----------------------|--------------------------|
--0--0--0--10--10--10--|--0--0--0--12--12--12--|--13--12--13--12--13--12--|


  E  E  E  E  E  E     Q    E  E  Q         Q    E  E  Q       
--------------------|--------------------|--------------------|
--------------------|--------------------|--------------------|
--3--3--3--5--5--5--|--7----7--7--7br----|--L----7--7--7br----|
--------------------|--0----0--0--0------|--L----0--0--0------|


  Q    E  E  Q       E  E  E  E  E  E     Q    E  E  Q       
------------------|--------------------|--------------------|
------------------|--------------------|--------------------|
--L----7--7--7----|--3--3--3--8--8--8--|--7----7--7--7br----|
--L----0--0--0----|--------------------|--0----0--0--0------|


  Q    E  E  Q         Q    E  E  Q       E  E  E  E  E  E   
--------------------|------------------|--------------------|
--------------------|------------------|--------------------|
--L----7--7--7br----|--L----7--7--7----|--3--3--3--5--5--5--|
--L----0--0--0------|--L----0--0--0----|--------------------|


  Q    E  E  Q         Q    E  E  Q         Q    E  E  Q     
--------------------|--------------------|------------------|
--------------------|--------------------|------------------|
--7----7--7--7br----|--L----7--7--7br----|--L----7--7--7----|
--0----0--0--0------|--L----0--0--0------|--L----0--0--0----|


  E  E  E  E  E  E     Q    E  E  Q         Q    E  E  Q       
--------------------|--------------------|--------------------|
--------------------|--------------------|--------------------|
--3--3--3--8--8--8--|--7----7--7--7br----|--L----7--7--7br----|
--------------------|--0----0--0--0------|--L----0--0--0------|


  Q    E  E  Q       E  E  E  E  E  E     E  E  E  E  Q       E  E  E  E  Q     
---------------|--------------------|-------------------|-------------------|
---------------|--------------------|-------------------|-------------------|
L----7--7--7---|--3--3--3--8--8--8--|-------------------|-------------------|
L----0--0--0---|--------------------|--0--0--0--0--0----|--0--0--0--0--0----|


  E  E  E  E  Q       E  E  E  E  Q       E  E  E  E  Q       E  E  E  E  Q     
----------------|-------------------|-------------------|-------------------|
----------------|-------------------|-------------------|-------------------|
----------------|-------------------|-------------------|-------------------|
--0--0--0--0----|--0--0--0--0--0----|--0--0--0--0--0----|--0--0--0--0--0----|


  E  E  E  E  Q       E  E  E  E  Q       E  E  E  E  Q       E  E  E  E  Q     
----------------|-------------------|-------------------|-------------------|
----------------|-------------------|-------------------|-------------------|
----------------|-------------------|-------------------|-------------------|
0--0--0--0--0---|--0--0--0--0--0----|--0--0--0--0--0----|--0--0--0--0--0----|


  E  E  E  E  Q       E  E  E  E  Q       E  E  E  E  Q       E  E  E  E  Q     
----------------|-------------------|-------------------|-------------------|
----------------|-------------------|-------------------|-------------------|
----------------|-------------------|-------------------|-------------------|
0--0--0--0--0---|--0--0--0--0--0----|--0--0--0--0--0----|--0--0--0--0--0----|


  E  E  E  E  Q       E  E  E  E  Q        E   E   E   E   E   E   
-------------------|-------------------|--------------------------|
-------------------|-------------------|--------------------------|
-------------------|-------------------|--10--10--10--10--10--10--|
--0--0--0--0--0----|--0--0--0--0--0----|--------------------------|


   E   E   E   E   E   E     E  E  E  E  Q       E  E  E  E  Q     
--------------------------|-------------------|-------------------|
--------------------------|-------------------|-------------------|
--10--10--10--10--10--10--|-------------------|-------------------|
--------------------------|--0--0--0--0--0----|--0--0--0--0--0----|


   E   E   E   E   E   E      E   E   E   E   E   E   
--------------------------|--------------------------|
--------------------------|--------------------------|
--10--10--10--10--10--10--|--10--10--10--10--10--10--|
--------------------------|--------------------------|


   E   E   E   E   E   E      E   E   E   E   E   E      E  E  E  E  Q     
--------------------------|---------------------------|-------------------|
--------------------------|---------------------------|-------------------|
--10--10--10--10--10--10--|--10--10--10--14--14--14\--|-------------------|
--------------------------|---------------------------|--0--0--0--0--0----|


  E  E  E  E  Q       E  E  E  E  Q       E  E  E  E  Q       E  E  E  E  Q     
----------------|-------------------|-------------------|-------------------|
----------------|-------------------|-------------------|-------------------|
----------------|-------------------|-------------------|-------------------|
0--0--0--0--0---|--0--0--0--0--0----|--0--0--0--0--0----|--0--0--0--0--0----|


  E  E  E  E  Q       E  E  E  E  Q       E  E  E  E  Q     
-------------------|-------------------|-------------------|
-------------------|-------------------|-------------------|
-------------------|-------------------|-------------------|
--0--0--0--0--0----|--0--0--0--0--0----|--0--0--0--0--0----|


   E   E   E   E   E   E      E   E   E   E   E   E     E  E  E  E  Q     
--------------------------|--------------------------|-------------------|
--------------------------|--------------------------|-------------------|
--10--10--10--10--10--10--|--10--10--10--10--10--10--|-------------------|
--------------------------|--------------------------|--0--0--0--0--0----|


  E  E  E  E  Q        E   E   E   E   E   E      E   E   E   E   E   E   
-------------------|--------------------------|--------------------------|
-------------------|--------------------------|--------------------------|
-------------------|--10--10--10--10--10--10--|--10--10--10--10--10--10--|
--0--0--0--0--0----|--------------------------|--------------------------|


   E   E   E   E   E   E      E   E   E   E   E   E      E  E  E  E  Q     
--------------------------|---------------------------|-------------------|
--------------------------|---------------------------|-------------------|
--10--10--10--10--10--10--|--10--10--10--14--14--14\--|--7--7--7-----7----|
--------------------------|---------------------------|--0--0--0-----0----|


  E  E  E  E  Q       E  E  E  E  Q       E  E  E  E  E  E   
-------------------|-------------------|--------------------|
-------------------|-------------------|--------------------|
--7--7--7-----7----|--7--7--7--7--7----|--7--7--7--7--7--7--|
--0--0--0-----0----|--0--0--0--0--0----|--0--0--0--0--0--0--|


  E  E  E  E  Q       E  E  E  E  Q       E  E  E  E  Q     
-------------------|-------------------|-------------------|
-------------------|-------------------|-------------------|
--7--7--7-----7----|--7--7--7-----7----|--7--7--7--7--7----|
--0--0--0-----0----|--0--0--0-----0----|--0--0--0--0--0----|


  E  E  E  E  E  E     E  E  E  E  Q       E  E  E  E  Q     
--------------------|-------------------|-------------------|
--------------------|-------------------|-------------------|
--7--7--7--7--7--7--|--7--7--7-----7----|--7--7--7-----7----|
--0--0--0--0--0--0--|--0--0--0-----0----|--0--0--0-----0----|


  E  E  E  E  Q       E  E  E  E  E  E     E  E  E  E  Q     
-------------------|--------------------|-------------------|
-------------------|--------------------|-------------------|
--7--7--7--7--7----|--7--7--7--7--7--7--|--7--7--7-----7----|
--0--0--0--0--0----|--0--0--0--0--0--0--|--0--0--0-----0----|


  E  E  E  E  Q       E  E  E  E  Q       E  E  E  E  E  E     E    
-------------------|-------------------|--------------------|-----||
-------------------|-------------------|--------------------|-----||
--7--7--7-----7----|--7--7--7--7--7----|--7--7--7--7--7--7--|--7--||
--0--0--0-----0----|--0--0--0--0--0----|--0--0--0--0--0--0--|--0--||





----------------------
----------------------
Drums
----------------------
----------------------

C||-----|-----|-----|-----|-----|-----|-----|-----|-----|-----|-----|-----|
C||-----|-----|-----|-----|-----|-----|-----|-----|-----|-----|-----|-----|
C||-----|-----|-----|-----|-----|-----|-----|-----|-----|-----|-----|-----|
C||-----|-----|-----|-----|-----|-----|-----|-----|-----|-----|-----|-----|
C||-----|-----|-----|-----|-----|-----|-----|-----|-----|-----|-----|-----|
C||-----|-----|-----|-----|-----|-----|-----|-----|-----|-----|-----|-----|


                     E   E   E   E   Q        E  E   E   E   E  E   
-----|-----|-----|------------------------|------------------------|
-----|-----|-----|------------------49----|--46-----46------46-----|
-----|-----|-----|------------------------|------------------------|
-----|-----|-----|------------------------|------------------------|
-----|-----|-----|------------------38----|------------------------|
-----|-----|-----|--36--36--36--36--36----|--36---------36--36-----|


   E  E   E   E   E  E      E  E   E   E   E  E      E   E   E   E   E   E   
------------------------|------------------------|--------------------------|
--46-----46------46-----|--46-----46------46-----|--46------46------46------|
------------------------|------------------------|--------------------------|
------------------------|------------------------|--------------------------|
--38--------------------|------------------------|--38------38------38------|
-------------36--36-----|--36---------36--36-----|------36------36------36--|


   E  E   E   E   E  E      E  E   E   E   E  E      E  E   E   E   E  E   
------------------------|------------------------|------------------------|
--46-----46------46-----|--46-----46------46-----|--46-----46------46-----|
------------------------|------------------------|------------------------|
------------------------|------------------------|------------------------|
------------------------|--38--------------------|------------------------|
--36---------36--36-----|-------------36--36-----|--36---------36--36-----|


   E   E   E   E   E   E      E  E   E   E   E  E      E  E   E   E   E  E   
--------------------------|------------------------|------------------------|
--46------46------46------|--46-----46------46-----|--46-----46------46-----|
--------------------------|------------------------|------------------------|
--------------------------|------------------------|------------------------|
--38------38------38------|------------------------|--38--------------------|
------36------36------36--|--36---------36--36-----|-------------36--36-----|


   E  E   E   E   E  E      E   E   E   E   E   E      E  E   E   E   E  E   
------------------------|--------------------------|------------------------|
--46-----46------46-----|--46------46------46------|--46-----46------46-----|
------------------------|--------------------------|------------------------|
------------------------|--------------------------|------------------------|
------------------------|--38------38------38------|------------------------|
--36---------36--36-----|------36------36------36--|--36---------36--36-----|


   E  E   E   E   E  E      E  E   E   E   E  E      E   E   E   E   E   E   
------------------------|------------------------|--------------------------|
--46-----46------46-----|--46-----46------46-----|--46------46------46------|
------------------------|------------------------|--------------------------|
------------------------|------------------------|--------------------------|
--38--------------------|------------------------|--38------38------38------|
-------------36--36-----|--36---------36--36-----|------36------36------36--|


   E   E   E   E   E   E      E  E   E   E   E  E      E  E   E   E   E  E   
--------------------------|------------------------|------------------------|
--49----------57----------|--49-----51------51-----|--51-----51------51-----|
--------------------------|------------------------|------------------------|
--------------------------|------------------------|------------------------|
--38----------38----------|------------------------|--38--------------------|
------36--36------36--36--|--36---------36--36-----|-------------36--36-----|


   E  E   E   E   E  E      E   E   E   E   E   E      E  E   E   E   E  E   
------------------------|--------------------------|------------------------|
--51-----51------51-----|--49----------57----------|--49-----51------51-----|
------------------------|--------------------------|------------------------|
------------------------|--------------------------|------------------------|
------------------------|--38----------38----------|------------------------|
--36---------36--36-----|------36--36------36--36--|--36---------36--36-----|


   E  E   E   E   E  E      E  E   E   E   E  E      E   E   E   E   E   E   
------------------------|------------------------|--------------------------|
--51-----51------51-----|--51-----51------51-----|--49----------57----------|
------------------------|------------------------|--------------------------|
------------------------|------------------------|--------------------------|
--38--------------------|------------------------|--38----------38----------|
-------------36--36-----|--36---------36--36-----|------36--36------36--36--|


   E  E   E   E   E  E      E  E   E   E   E  E      E  E   E   E   E  E   
------------------------|------------------------|------------------------|
--49-----51------51-----|--51-----51------51-----|--51-----51------51-----|
------------------------|------------------------|------------------------|
------------------------|------------------------|------------------------|
------------------------|--38--------------------|------------------------|
--36---------36--36-----|-------------36--36-----|--36---------36--36-----|


   E   E   E   E   E   E      E  E   E   E   E  E      E  E   E   E   E  E   
--------------------------|------------------------|------------------------|
--49----------57----------|--49-----51------51-----|--51-----51------51-----|
--------------------------|------------------------|------------------------|
--------------------------|------------------------|------------------------|
--38----------38----------|------------------------|--38--------------------|
------36--36------36--36--|--36---------36--36-----|-------------36--36-----|


   E  E   E   E   E  E      E   E   E   E   E   E      E  E   E   E   E  E   
------------------------|--------------------------|------------------------|
--51-----51------51-----|--49----------57----------|--46-----46------46-----|
------------------------|--------------------------|------------------------|
------------------------|--------------------------|------------------------|
------------------------|--38----------38----------|------------------------|
--36---------36--36-----|------36--36------36--36--|--36---------36--36-----|


   E  E   E   E   E  E      E  E   E   E   E  E      E   E   E   E   E   E   
------------------------|------------------------|--------------------------|
--46-----46------46-----|--46-----46------46-----|--46------46------46------|
------------------------|------------------------|--------------------------|
------------------------|------------------------|--------------------------|
--38--------------------|------------------------|--38------38------38------|
-------------36--36-----|--36---------36--36-----|------36------36------36--|


   E  E   E   E   E  E      E  E   E   E   E  E      E  E   E   E   E  E   
------------------------|------------------------|------------------------|
--46-----46------46-----|--46-----46------46-----|--46-----46------46-----|
------------------------|------------------------|------------------------|
------------------------|------------------------|------------------------|
------------------------|--38--------------------|------------------------|
--36---------36--36-----|-------------36--36-----|--36---------36--36-----|


   E   E   E   E   E   E      E  E   E   E   E  E      E  E   E   E   E  E   
--------------------------|------------------------|------------------------|
--46------46------46------|--46-----46------46-----|--46-----46------46-----|
--------------------------|------------------------|------------------------|
--------------------------|------------------------|------------------------|
--38------38------38------|------------------------|--38--------------------|
------36------36------36--|--36---------36--36-----|-------------36--36-----|


   E  E   E   E   E  E      E   E   E   E   E   E      E  E   E   E   E  E   
------------------------|--------------------------|------------------------|
--46-----46------46-----|--46------46------46------|--46-----46------46-----|
------------------------|--------------------------|------------------------|
------------------------|--------------------------|------------------------|
------------------------|--38------38------38------|------------------------|
--36---------36--36-----|------36------36------36--|--36---------36--36-----|


   E  E   E   E   E  E      E  E   E   E   E  E      E   E   E   E   E   E   
------------------------|------------------------|--------------------------|
--46-----46------46-----|--46-----46------46-----|--46------46------46------|
------------------------|------------------------|--------------------------|
------------------------|------------------------|--------------------------|
--38--------------------|------------------------|--38------38------38------|
-------------36--36-----|--36---------36--36-----|------36------36------36--|


   E   E   E   E   E   E      E  E   E   E   E  E      E  E   E   E   E  E   
--------------------------|------------------------|------------------------|
--49----------57----------|--49-----51------51-----|--51-----51------51-----|
--------------------------|------------------------|------------------------|
--------------------------|------------------------|------------------------|
--38----------38----------|------------------------|--38--------------------|
------36--36------36--36--|--36---------36--36-----|-------------36--36-----|


   E  E   E   E   E  E      E   E   E   E   E   E      E  E   E   E   E  E   
------------------------|--------------------------|------------------------|
--51-----51------51-----|--49----------57----------|--49-----51------51-----|
------------------------|--------------------------|------------------------|
------------------------|--------------------------|------------------------|
------------------------|--38----------38----------|------------------------|
--36---------36--36-----|------36--36------36--36--|--36---------36--36-----|


   E  E   E   E   E  E      E  E   E   E   E  E      E   E   E   E   E   E   
------------------------|------------------------|--------------------------|
--51-----51------51-----|--51-----51------51-----|--49----------57----------|
------------------------|------------------------|--------------------------|
------------------------|------------------------|--------------------------|
--38--------------------|------------------------|--38----------38----------|
-------------36--36-----|--36---------36--36-----|------36--36------36--36--|


   E  E   E   E   E  E      E  E   E   E   E  E      E  E   E   E   E  E   
------------------------|------------------------|------------------------|
--49-----51------51-----|--51-----51------51-----|--51-----51------51-----|
------------------------|------------------------|------------------------|
------------------------|------------------------|------------------------|
------------------------|--38--------------------|------------------------|
--36---------36--36-----|-------------36--36-----|--36---------36--36-----|


   E   E   E   E   E   E      E  E   E   E   E  E      E  E   E   E   E  E   
--------------------------|------------------------|------------------------|
--49----------57----------|--49-----51------51-----|--51-----51------51-----|
--------------------------|------------------------|------------------------|
--------------------------|------------------------|------------------------|
--38----------38----------|------------------------|--38--------------------|
------36--36------36--36--|--36---------36--36-----|-------------36--36-----|


   E  E   E   E   E  E      E   E   E   E   E   E      Q     Q     Q     
------------------------|--------------------------|--------------------|
--51-----51------51-----|--49----------57----------|--46----42----42----|
------------------------|--------------------------|--------------------|
------------------------|--------------------------|--------------------|
------------------------|--38----------38----------|--------------------|
--36---------36--36-----|------36--36------36--36--|--------------------|


   Q     Q     Q        Q     Q     Q        E   E   E   E   E   E   
--------------------|--------------------|--------------------------|
--42----42----42----|--42----42----42----|--46----------------------|
--------------------|--------------------|--------------------------|
--------------------|--------------------|--------------47--45--45--|
--------------------|--------------------|--38----------38--38--38--|
--------------------|--------------------|------36--36--------------|


   Q     Q     Q        Q     Q     Q        Q     Q     Q     
--------------------|--------------------|--------------------|
--46----42----42----|--42----42----42----|--42----42----42----|
--------------------|--------------------|--------------------|
--------------------|--------------------|--------------------|
--------------------|--------------------|--------------------|
--------------------|--------------------|--------------------|


   E   E   E   E   E   E      Q     Q     Q        Q     Q     Q     
--------------------------|--------------------|--------------------|
--49----------57----------|--46----42----42----|--42----42----42----|
--------------------------|--------------------|--------------------|
--------------------------|--------------------|--------------------|
--38----------38----------|--------------------|--------------------|
------36--36------36--36--|--------------------|--------------------|


   Q     Q     Q        E   E   E   S  S  S  S  S  S  
--------------------|--------------------------------|
--42----42----42----|--46------51--------------------|
--------------------|--------------------------------|
--------------------|--------------38-38-38-38-38-38-|
--------------------|--38----------------------------|
--------------------|------36------------------------|


   E   E   E   E   E   E      E  E   E  E   E  E      E   E   E  E   E   E   
--------------------------|-----------------------|-------------------------|
--49------51------51------|--51-----51-----51-----|--51------51-----51------|
--------------------------|-----------------------|-------------------------|
--------------------------|-----------------------|-------------------------|
--------------38----------|--38------------38-----|----------38-------------|
------36--36----------36--|---------36------------|--36--36---------36--36--|


   E   E   E   E   E   E      Q     Q     Q        Q     Q     Q     
--------------------------|--------------------|--------------------|
--51------51--------------|--46----42----42----|--42----42----42----|
--------------------------|--------------------|--------------------|
------------------43--43--|--------------------|--------------------|
------38----------45--45--|--------------------|--------------------|
--36----------36----------|--------------------|--------------------|


   Q     Q     Q        E   E   E   E   E   E      Q     Q     Q     
--------------------|--------------------------|--------------------|
--42----42----42----|--46----------------------|--46----42----42----|
--------------------|--------------------------|--------------------|
--------------------|--------------47--45--45--|--------------------|
--------------------|--38----------38--38--38--|--------------------|
--------------------|------36--36--------------|--------------------|


   Q     Q     Q        Q     Q     Q        E   E   E   E   E   E   
--------------------|--------------------|--------------------------|
--42----42----42----|--42----42----42----|--49----------57----------|
--------------------|--------------------|--------------------------|
--------------------|--------------------|--------------------------|
--------------------|--------------------|--38----------38----------|
--------------------|--------------------|------36--36------36--36--|


   Q     Q     Q        Q     Q     Q        Q     Q     Q     
--------------------|--------------------|--------------------|
--46----42----42----|--42----42----42----|--42----42----42----|
--------------------|--------------------|--------------------|
--------------------|--------------------|--------------------|
--------------------|--------------------|--------------------|
--------------------|--------------------|--------------------|


   E   E   E   S  S  S  S  S  S     E   E   E   E   E   E   
--------------------------------|--------------------------|
--46------51--------------------|--49------51------51------|
--------------------------------|--------------------------|
--------------38-38-38-38-38-38-|--------------------------|
--38----------------------------|--------------38----------|
------36------------------------|------36--36----------36--|


   E  E   E  E   E  E      E   E   E  E   E   E   
-----------------------|-------------------------|
--51-----51-----51-----|--51------51-----51------|
-----------------------|-------------------------|
-----------------------|-------------------------|
--38------------38-----|----------38-------------|
---------36------------|--36--36---------36--36--|


   E   S  S  S  S  S  S  S  S  S  S     H.                                    
-----------------------------------|----------------|-----|-----|-----|-----|
-----------------------------------|--57------------|-----|-----|-----|-----|
-----------------------------------|--49------------|-----|-----|-----|-----|
-----------------------------------|----------------|-----|-----|-----|-----|
-38--38-38-38-38-38-38-38-38-38-38-|----------------|-----|-----|-----|-----|
-----------------------------------|----------------|-----|-----|-----|-----|


----|-----|-----|-----|-----|-----|-----|-----|-----|-----|-----|-----|-----|
----|-----|-----|-----|-----|-----|-----|-----|-----|-----|-----|-----|-----|
----|-----|-----|-----|-----|-----|-----|-----|-----|-----|-----|-----|-----|
----|-----|-----|-----|-----|-----|-----|-----|-----|-----|-----|-----|-----|
----|-----|-----|-----|-----|-----|-----|-----|-----|-----|-----|-----|-----|
----|-----|-----|-----|-----|-----|-----|-----|-----|-----|-----|-----|-----|


                                             E   E   E   E   Q     
-----|-----|-----|-----|-----|-----|-----|------------------------|
-----|-----|-----|-----|-----|-----|-----|------------------49----|
-----|-----|-----|-----|-----|-----|-----|------------------------|
-----|-----|-----|-----|-----|-----|-----|------------------------|
-----|-----|-----|-----|-----|-----|-----|------------------38----|
-----|-----|-----|-----|-----|-----|-----|--36--36--36--36--36----|


   E  E   E   E   E  E      E  E   E   E   E  E      E  E   E   E   E  E   
------------------------|------------------------|------------------------|
--46-----46------46-----|--46-----46------46-----|--46-----46------46-----|
------------------------|------------------------|------------------------|
------------------------|------------------------|------------------------|
------------------------|--38--------------------|------------------------|
--36---------36--36-----|-------------36--36-----|--36---------36--36-----|


   E   E   E   E   E   E      E  E   E   E   E  E      E  E   E   E   E  E   
--------------------------|------------------------|------------------------|
--46------46------46------|--46-----46------46-----|--46-----46------46-----|
--------------------------|------------------------|------------------------|
--------------------------|------------------------|------------------------|
--38------38------38------|------------------------|--38--------------------|
------36------36------36--|--36---------36--36-----|-------------36--36-----|


   E  E   E   E   E  E      E   E   E   E   E   E      E  E   E   E   E  E   
------------------------|--------------------------|------------------------|
--46-----46------46-----|--46------46------46------|--46-----46------46-----|
------------------------|--------------------------|------------------------|
------------------------|--------------------------|------------------------|
------------------------|--38------38------38------|------------------------|
--36---------36--36-----|------36------36------36--|--36---------36--36-----|


   E  E   E   E   E  E      E  E   E   E   E  E      E   E   E   E   E   E   
------------------------|------------------------|--------------------------|
--46-----46------46-----|--46-----46------46-----|--46------46------46------|
------------------------|------------------------|--------------------------|
------------------------|------------------------|--------------------------|
--38--------------------|------------------------|--38------38------38------|
-------------36--36-----|--36---------36--36-----|------36------36------36--|


   E  E   E   E   E  E      E  E   E   E   E  E      E  E   E   E   E  E   
------------------------|------------------------|------------------------|
--46-----46------46-----|--46-----46------46-----|--46-----46------46-----|
------------------------|------------------------|------------------------|
------------------------|------------------------|------------------------|
------------------------|--38--------------------|------------------------|
--36---------36--36-----|-------------36--36-----|--36---------36--36-----|


   E   E   E   E   E   E      E   E   E   E   E   E      E  E   E   E   E  E   
------------------------|--------------------------|------------------------|
46------46------46------|--49----------57----------|--49-----51------51-----|
------------------------|--------------------------|------------------------|
------------------------|--------------------------|------------------------|
38------38------38------|--38----------38----------|------------------------|
----36------36------36--|------36--36------36--36--|--36---------36--36-----|


   E  E   E   E   E  E      E  E   E   E   E  E      E   E   E   E   E   E   
------------------------|------------------------|--------------------------|
--51-----51------51-----|--51-----51------51-----|--49----------57----------|
------------------------|------------------------|--------------------------|
------------------------|------------------------|--------------------------|
--38--------------------|------------------------|--38----------38----------|
-------------36--36-----|--36---------36--36-----|------36--36------36--36--|


   E  E   E   E   E  E      E  E   E   E   E  E      E  E   E   E   E  E   
------------------------|------------------------|------------------------|
--49-----51------51-----|--51-----51------51-----|--51-----51------51-----|
------------------------|------------------------|------------------------|
------------------------|------------------------|------------------------|
------------------------|--38--------------------|------------------------|
--36---------36--36-----|-------------36--36-----|--36---------36--36-----|


   E   E   E   E   E   E      E  E   E   E   E  E      E  E   E   E   E  E   
--------------------------|------------------------|------------------------|
--49----------57----------|--49-----51------51-----|--51-----51------51-----|
--------------------------|------------------------|------------------------|
--------------------------|------------------------|------------------------|
--38----------38----------|------------------------|--38--------------------|
------36--36------36--36--|--36---------36--36-----|-------------36--36-----|


   E  E   E   E   E  E      E   E   E   E   E   E      E  E   E   E   E  E   
------------------------|--------------------------|------------------------|
--51-----51------51-----|--49----------57----------|--49-----51------51-----|
------------------------|--------------------------|------------------------|
------------------------|--------------------------|------------------------|
------------------------|--38----------38----------|------------------------|
--36---------36--36-----|------36--36------36--36--|--36---------36--36-----|


   E  E   E   E   E  E      E  E   E   E   E  E      E   E   E   E   E   E   
------------------------|------------------------|--------------------------|
--51-----51------51-----|--51-----51------51-----|--49----------57----------|
------------------------|------------------------|--------------------------|
------------------------|------------------------|--------------------------|
--38--------------------|------------------------|--38----------38----------|
-------------36--36-----|--36---------36--36-----|------36--36------36--36--|


   Q     E   E   E   E      E   E   E   E   E   E      E   E   E   E   E   E   
----------------------|--------------------------|--------------------------|
49----51--51--51--51--|--51--51--51--51--51--51--|--51--51--51--51--51--51--|
----------------------|--------------------------|--------------------------|
----------------------|--------------------------|--------------------------|
----------------------|--38----------------------|--------------------------|
36--------36--36--36--|--------------36--36--36--|--36----------36--36--36--|


   E   E   E   E   E   E      E   E   E   E   E   E   
--------------------------|--------------------------|
--51--51--51--51--51--51--|--51--51--51--51--51--51--|
--------------------------|--------------------------|
--------------------------|--------------------------|
--38----------------------|--------------------------|
--------------36--36--36--|--36----------36--36--36--|


   E   E   E   E   E   E      E   E   E   E   E   E   
--------------------------|--------------------------|
--51--51--51--51--51--51--|--51--51--51--51--51--51--|
--------------------------|--------------------------|
--------------------------|--------------------------|
--38----------------------|--------------------------|
--------------36--36--36--|--36----------36--36--36--|


   E   E   E   E   E   E      E   E   E   E   E   E   
--------------------------|--------------------------|
--51--51--51--51--51--51--|--51--51--51--51--51--51--|
--------------------------|--------------------------|
--------------------------|--------------------------|
--38----------------------|--------------------------|
--------------36--36--36--|--36----------36--36--36--|


   E   E   E   E   E   E      E   E   E   E   E   E   
--------------------------|--------------------------|
--51--51--51--51--51--51--|--51--51--51--51--51--51--|
--------------------------|--------------------------|
--------------------------|--------------------------|
--38----------------------|--------------------------|
--------------36--36--36--|--36----------36--36--36--|


   E   E   E   E   E   E      E   E   E   E   E   E   
--------------------------|--------------------------|
--51--51--51--51--51--51--|--51--51--51--51--51--51--|
--------------------------|--------------------------|
--------------------------|--------------------------|
--38----------------------|--------------------------|
--------------36--36--36--|--36----------36--36--36--|


   E   E   E   E   E   E      E   E   E   E   E   E   
--------------------------|--------------------------|
--51--51--51--51--51--51--|--51--51--51--51--51--51--|
--------------------------|--------------------------|
--------------------------|--------------------------|
--38----------------------|--------------------------|
--------------36--36--36--|--36----------36--36--36--|


   E   E   E   E   E   E      E   E   E   E   E   E   
--------------------------|--------------------------|
--51--51--51--51--49--49--|--49--51--51--51--51--51--|
--------------------------|--57----------------------|
--------------------------|--------------------------|
--38--------------38--38--|--------------------------|
----------36--36----------|------------------36------|


   E   E   E   E   E   E      E   E   E   E   E   E   
--------------------------|--------------------------|
--51--51--51--51--51--51--|--49--51--51--51--51--51--|
--------------------------|--------------------------|
--------------------------|--------------------------|
--38--------------38------|--------------------------|
----------36--36----------|--------------36--36--36--|


   E   E   E   E   E   E      E   E   E   E   E   E   
--------------------------|--------------------------|
--51--51--51--51--51--51--|--49--51--51--51--51--51--|
--------------------------|--57----------------------|
--------------------------|--------------------------|
--38--------------38------|--------------------------|
----------36--36----------|------------------36------|


   E   E   E   E   E   E      E   E   E   E   E   E   
--------------------------|--------------------------|
--51--51--51--51--51--51--|--51--51--51--51--51--51--|
--------------------------|--------------------------|
--------------------------|--------------------------|
--38--------------38------|------38----------38--38--|
----------36--36----------|--36----------36----------|


   E   E   E   E   E   E      Q     E   E   E   E      E   E   E   E   E   E   
------------------------|------------------------|--------------------------|
51--51--51--51--51--51--|--49----51--51--51--51--|--51--51--51--51--51--51--|
------------------------|------------------------|--------------------------|
------------------------|------------------------|--------------------------|
38------38--38--38--38--|------------------------|--38----------------------|
----36------------------|--36--------36--36--36--|--------------36--36--36--|


   E   E   E   E   E   E      E   E   E   E   E   E   
--------------------------|--------------------------|
--51--51--51--51--51--51--|--51--51--51--51--51--51--|
--------------------------|--------------------------|
--------------------------|--------------------------|
--------------------------|--38----------------------|
--36----------36--36--36--|--------------36--36--36--|


   E   E   E   E   E   E      E   E   E   E   E   E   
--------------------------|--------------------------|
--51--51--51--51--51--51--|--51--51--51--51--51--51--|
--------------------------|--------------------------|
--------------------------|--------------------------|
--------------------------|--38----------------------|
--36----------36--36--36--|--------------36--36--36--|


   E   E   E   E   E   E      E   E   E   E   E   E   
--------------------------|--------------------------|
--51--51--51--51--51--51--|--51--51--51--51--49--49--|
--------------------------|--------------------------|
--------------------------|--------------------------|
--------------------------|--38--------------38--38--|
--36----------36--36--36--|----------36--36----------|


   E   E   E   E   E   E      E   E   E   E   E   E   
--------------------------|--------------------------|
--49--51--51--51--51--51--|--51--51--51--51--51--51--|
--57----------------------|--------------------------|
--------------------------|--------------------------|
--------------------------|--38--------------38------|
------------------36------|----------36--36----------|


   E   E   E   E   E   E      E   E   E   E   E   E   
--------------------------|--------------------------|
--49--51--51--51--51--51--|--51--51--51--51--51--51--|
--------------------------|--------------------------|
--------------------------|--------------------------|
--------------------------|--38--------------38------|
--------------36--36--36--|----------36--36----------|


   E   E   E   E   E   E      E   E   E   E   E   E   
--------------------------|--------------------------|
--49--51--51--51--51--51--|--51--51--51--51--51--51--|
--57----------------------|--------------------------|
--------------------------|--------------------------|
--------------------------|--38--------------38------|
------------------36------|----------36--36----------|


   E   E   E   E   E   E      E   E   E   E   E   E      Q     E   E   E   E   
------------------------|--------------------------|------------------------|
51--51--51--51--51--51--|--51--51--51--51--51--51--|--57--------57--57------|
------------------------|--------------------------|--49--------49--49------|
------------------------|--------------------------|------------------------|
----38----------38--38--|--38------38--38--38--38--|--38--------38--38------|
36----------36----------|------36------------------|--------36----------36--|


   Q     E   E   E   E      Q     E   E   Q        E   E   E   E   E   E   
------------------------|----------------------|--------------------------|
--57--------57--57------|--57--------57--57----|------57--57--57--57------|
--49--------49--49------|--49--------49--49----|------49--49--49--49------|
------------------------|----------------------|--------------------------|
--38--------38--38------|--38--------38--38----|------38--38--38--38------|
--------36----------36--|--------36------------|--36------------------36--|


   Q     E   E   E   E      Q     E   E   E   E      Q     E   E   Q     
------------------------|------------------------|----------------------|
--57--------57--57------|--57--------57--57------|--57--------57--57----|
--49--------49--49------|--49--------49--49------|--49--------49--49----|
------------------------|------------------------|----------------------|
--38--------38--38------|--38--------38--38------|--38--------38--38----|
--------36----------36--|--------36----------36--|--------36------------|


   E   E   E   E   E   E      Q     E   E   E   E      Q     E   E   E   E   
--------------------------|------------------------|------------------------|
------57--57--57--57------|--57--------57--57------|--57--------57--57------|
------49--49--49--49------|--49--------49--49------|--49--------49--49------|
--------------------------|------------------------|------------------------|
------38--38--38--38------|--38--------38--38------|--38--------38--38------|
--36------------------36--|--------36----------36--|--------36----------36--|


   Q     E   E   Q        E   E   E   E   E   E      Q     E   E   E   E   
----------------------|--------------------------|------------------------|
--57--------57--57----|------57--57--57--57------|--57--------57--57------|
--49--------49--49----|------49--49--49--49------|--49--------49--49------|
----------------------|--------------------------|------------------------|
--38--------38--38----|------38--38--38--38------|--38--------38--38------|
--------36------------|--36------------------36--|--------36----------36--|


   Q     E   E   E   E      Q     E   E   Q        E   E   E   E   E   E   
------------------------|----------------------|--------------------------|
--57--------57--57------|--57--------57--57----|------57--57--57--57------|
--49--------49--49------|--49--------49--49----|------49--49--49--49------|
------------------------|----------------------|--------------------------|
--38--------38--38------|--38--------38--38----|------38--38--38--38------|
--------36----------36--|--------36------------|--36------------------36--|


   Q    H          
-----------------||
--57-------------||
--49-------------||
-----------------||
--38-------------||
-----------------||




Duration Legend
---------------
W - whole
H - half
Q - quarter
E - 8th
S - 16th
T - 32nd
X - 64th
. - note dotted
|-n-|  - n-tuplets


Tablature Legend
----------------
L - tied note
x - dead note
g - grace note
(n) - ghost note
> - accentuded note
NH - natural harmonic
AH - artificial harmonic
TH - tapped harmonic
SH - semi harmonic
PH - pitch harmonic
h - hammer on
p - pull off
b - bend
br - bendRelease
pb - preBend
pbr - preBendRelease
brb - bendReleaseBend
\n/ - tremolo bar dip
\n - tremolo bar dive
-/n - tremolo bar Release up
/n\ - tremolo bar inverted dip
/n - tremolo bar return
-\n - tremolo bar Release down
S - shift slide
s - legato slide
/ -  slide into from below or out of upwards
\ -  slide into from above or out of downwards
~ - vibrato
W - wide vibrato
tr - trill
TP - tremolo picking
T - tapping
S - slap
P - pop
< - fade in
^ - brush up
v - brush down

Drum Legend
-----------
36 - bass drum
38 - snare drum
42 - closed high-hat
43 - floor tom
45 - low rack tom
46 - open high-hat
47 - high rack tom
49 - crash cymbal 1
51 - ride cymbal
57 - crash cymbal 2

comments
print report bad tab
I want to post or [tab]
guest
You may want to rate the tab now too:
select rating
Please do not post tabs as comments. Select "correction" instead!