Oops, an error
Loading. Please wait.

Bounty Hunter Tab

ver1
ver1

Whole song

Interactive

More versions @911Tabs.com
5,141 views 3 this week
1 commentread comment
1 2 3 4 5
worth learning
x 3
add to favorites launch autoscroll
font size
0
reset
Autoscroll
+/-
esc
set tempo
stop
WARNING: You are trying to view
                                    content from Ultimate-Guitar.com
                                    in an unauthorized application,
                                    which is prohibited.

                                    Please use an official Ultimate
                                    Guitar Tabs application for iPhone,
                                    iPad or Android to access legitimate
                                    chords, guitar, bass, and drum tabs
                                    from Ultimate-Guitar.com database.

                                    Type "ultimate guitar tabs" in Apple
                                    App Store's or Android Market's
                                    search to find the application.
Band: Molly Hatchet
Song: Bounty Hunter



Rhythm Guitar:



     PM PM    PM PM    PM PM       PM PM    PM PM        
     E  E  E  E  E  E  E  E     E  E  E  E  E  E  E  E   
E||--------------------------|--------------------------|
B||--------------------------|-----------0--------------|
G||--------2--------0--------|--2--------0--------2--L--|
D||--------2--------0--------|--2-----------------2--L--|
A||--0--0-----0--0-----0--0--|-----0--0-----0--0--------|
E||--------------------------|--------------------------|


  PM PM    PM PM    PM PM       PM PM                 
  E  E  E  E  E  E  E  E     E  E  E  E  E  E  E  E   
--------------------------|--------------------------|
--------------------------|--0-----------------------|
--------2--------0--------|--0--------2--L-----------|
--------2--------0--------|-----------2--L-----------|
--0--0-----0--0-----0--0--|-----0--0--------0--2--3--|
--------------------------|--------------------------|


  PM PM    PM PM    PM PM       PM PM    PM PM        
  E  E  E  E  E  E  E  E     E  E  E  E  E  E  E  E   
--------------------------|--------------------------|
--------------------------|-----------0--------------|
--------2--------0--------|--2--------0--------2--L--|
--------2--------0--------|--2-----------------2--L--|
--0--0-----0--0-----0--0--|-----0--0-----0--0--------|
--------------------------|--------------------------|


  PM PM    PM PM    PM PM       PM PM                 
  E  E  E  E  E  E  E  E     E  E  E  E  E  E  E  E   
--------------------------|--------------------------|
--------------------------|--0-----------------------|
--------2--------0--------|--0--------2--L-----------|
--------2--------0--------|-----------2--L-----------|
--0--0-----0--0-----0--0--|-----0--0--------0--2--3--|
--------------------------|--------------------------|


  PM PM    PM PM    PM PM       PM PM    PM PM        
  E  E  E  E  E  E  E  E     E  E  E  E  E  E  E  E   
--------------------------|--------------------------|
--------------------------|-----------0--------------|
--------2--------0--------|--2--------0--------2--L--|
--------2--------0--------|--2-----------------2--L--|
--0--0-----0--0-----0--0--|-----0--0-----0--0--------|
--------------------------|--------------------------|


  PM PM    PM PM    PM PM       PM PM                 
  E  E  E  E  E  E  E  E     E  E  E  E  E  E  E  E   
--------------------------|--------------------------|
--------------------------|--0-----------------------|
--------2--------0--------|--0--------2--L-----------|
--------2--------0--------|-----------2--L-----------|
--0--0-----0--0-----0--0--|-----0--0--------0--2--3--|
--------------------------|--------------------------|


  PM PM    PM PM    PM PM       PM PM    PM PM        
  E  E  E  E  E  E  E  E     E  E  E  E  E  E  E  E   
--------------------------|--------------------------|
--------------------------|-----------0--------------|
--------2--------0--------|--2--------0--------2--L--|
--------2--------0--------|--2-----------------2--L--|
--0--0-----0--0-----0--0--|-----0--0-----0--0--------|
--------------------------|--------------------------|


  PM PM    PM PM    PM PM       PM PM                 
  E  E  E  E  E  E  E  E     E  E  E  E  E  E  E  E   
--------------------------|--------------------------|
--------------------------|--0-----------------------|
--------2--------0--------|--0--------2--L-----------|
--------2--------0--------|-----------2--L-----------|
--0--0-----0--0-----0--0--|-----0--0--------0--2--3--|
--------------------------|--------------------------|


  PM PM    PM PM    PM PM       PM PM    PM PM        
  E  E  E  E  E  E  E  E     E  E  E  E  E  E  E  E   
--------------------------|--------------------------|
--------------------------|-----------0--------------|
--------2--------0--------|--2--------0--------2--L--|
--------2--------0--------|--2-----------------2--L--|
--0--0-----0--0-----0--0--|-----0--0-----0--0--------|
--------------------------|--------------------------|


  PM PM    PM PM    PM PM       PM PM                 
  E  E  E  E  E  E  E  E     E  E  E  E  E  E  E  E   
--------------------------|--------------------------|
--------------------------|--0-----------------------|
--------2--------0--------|--0--------2--L-----------|
--------2--------0--------|-----------2--L-----------|
--0--0-----0--0-----0--0--|-----0--0--------0--2--3--|
--------------------------|--------------------------|


  PM PM    PM PM    PM PM                             
  E  E  E  E  E  E  E  E     Q    E  E  E  E  S S E   
--------------------------|--------------------------|
--------------------------|--------------------------|
--------2--------2--------|--2-------------2--4-2----|
--0--0--0--0--0--0--0--0--|--0----0--2--4---------0--|
--------------------------|--------------------------|
--------------------------|--------------------------|


  PM PM    PM PM    PM PM                             
  E  E  E  E  E  E  E  E     Q    E  E  E  E  S S E   
--------------------------|--------------------------|
--------------------------|--------------------------|
--------2--------2--------|--2-------------2--4-2----|
--0--0--0--0--0--0--0--0--|--0----0--2--4---------0--|
--------------------------|--------------------------|
--------------------------|--------------------------|


  PM PM    PM PM    PM PM       PM PM    PM PM        
  E  E  E  E  E  E  E  E     E  E  E  E  E  E  E  E   
--------------------------|--------------------------|
--------------------------|-----------0--------------|
--------2--------0--------|--2--------0--------2--L--|
--------2--------0--------|--2-----------------2--L--|
--0--0-----0--0-----0--0--|-----0--0-----0--0--------|
--------------------------|--------------------------|


                                                        F5                
  PM PM    PM PM    PM PM       PM PM                                     
  E  E  E  E  E  E  E  E     E  E  E  E  E  E  E  E     W                 
--------------------------|--------------------------|-------------------|
--------------------------|--0-----------------------|-------------------|
--------2--------0--------|--0--------2--L-----------|-------------------|
--------2--------0--------|-----------2--L-----------|--3----------------|
--0--0-----0--0-----0--0--|-----0--0--------0--0--0--|--3----------------|
--------------------------|--------------------------|--1----------------|


                             G5                                        
  E   E  E  E  E  Q.         W                   E   E  E  E  E  E.    
--------------------------|-------------------|-----------------------|
--------------------------|-------------------|-----------------------|
--------------------------|-------------------|------------------5~---|
--------------------------|--5----------------|---------5--6--7-------|
---------3-----3--5~------|--5----------------|--5s--7----------------|
--3s--5-----5-------------|--3----------------|-----------------------|


  PM PM    PM PM    PM PM       PM PM    PM PM        
  E  E  E  E  E  E  E  E     E  E  E  E  E  E  E  E   
--------------------------|--------------------------|
--------------------------|-----------0--------------|
--------2--------0--------|--2--------0--------2--L--|
--------2--------0--------|--2-----------------2--L--|
--0--0-----0--0-----0--0--|-----0--0-----0--0--------|
--------------------------|--------------------------|


  PM PM    PM PM    PM PM       PM PM                 
  E  E  E  E  E  E  E  E     E  E  E  E  E  E  E  E   
--------------------------|--------------------------|
--------------------------|--0-----------------------|
--------2--------0--------|--0--------2--L-----------|
--------2--------0--------|-----------2--L-----------|
--0--0-----0--0-----0--0--|-----0--0--------0--2--3--|
--------------------------|--------------------------|


  PM PM    PM PM    PM PM       PM PM    PM PM        
  E  E  E  E  E  E  E  E     E  E  E  E  E  E  E  E   
--------------------------|--------------------------|
--------------------------|-----------0--------------|
--------2--------0--------|--2--------0--------2--L--|
--------2--------0--------|--2-----------------2--L--|
--0--0-----0--0-----0--0--|-----0--0-----0--0--------|
--------------------------|--------------------------|


  PM PM    PM PM    PM PM       PM PM                 
  E  E  E  E  E  E  E  E     E  E  E  E  E  E  E  E   
--------------------------|--------------------------|
--------------------------|--0-----------------------|
--------2--------0--------|--0--------2--L-----------|
--------2--------0--------|-----------2--L-----------|
--0--0-----0--0-----0--0--|-----0--0--------0--2--3--|
--------------------------|--------------------------|


  PM PM    PM PM    PM PM       PM PM    PM PM        
  E  E  E  E  E  E  E  E     E  E  E  E  E  E  E  E   
--------------------------|--------------------------|
--------------------------|-----------0--------------|
--------2--------0--------|--2--------0--------2--L--|
--------2--------0--------|--2-----------------2--L--|
--0--0-----0--0-----0--0--|-----0--0-----0--0--------|
--------------------------|--------------------------|


  PM PM    PM PM    PM PM       PM PM                 
  E  E  E  E  E  E  E  E     E  E  E  E  E  E  E  E   
--------------------------|--------------------------|
--------------------------|--0-----------------------|
--------2--------0--------|--0--------2--L-----------|
--------2--------0--------|-----------2--L-----------|
--0--0-----0--0-----0--0--|-----0--0--------0--2--3--|
--------------------------|--------------------------|


  PM PM    PM PM    PM PM                             
  E  E  E  E  E  E  E  E     Q    E  E  E  E  S S E   
--------------------------|--------------------------|
--------------------------|--------------------------|
--------2--------2--------|--2-------------2--4-2----|
--0--0--0--0--0--0--0--0--|--0----0--2--4---------0--|
--------------------------|--------------------------|
--------------------------|--------------------------|


  PM PM    PM PM    PM PM    >    >       >         PM PM    PM PM    PM PM  
  E  E  E  E  E  E  E  E     Q    Q    E  Q.        E  E  E  E  E  E  E  E   
--------------------------|----------------------|--------------------------|
--------------------------|----------------------|--------------------------|
--------2--------2--------|--7----7-------7------|--------2--------0--------|
--0--0--0--0--0--0--0--0--|--5----5-------5------|--------2--------0--------|
--------------------------|----------------------|--0--0-----0--0-----0--0--|
--------------------------|----------------------|--------------------------|


     PM PM    PM PM          PM PM    PM PM    PM PM  
  E  E  E  E  E  E  E  E     E  E  E  E  E  E  E  E   
--------------------------|--------------------------|
-----------0--------------|--------------------------|
--2--------0--------2--L--|--------2--------0--------|
--2-----------------2--L--|--------2--------0--------|
-----0--0-----0--0--------|--0--0-----0--0-----0--0--|
--------------------------|--------------------------|


     PM PM                   PM PM    PM PM    PM PM  
  E  E  E  E  E  E  E  E     E  E  E  E  E  E  E  E   
--------------------------|--------------------------|
--0-----------------------|--------------------------|
--0--------2--L-----------|--------2--------2--------|
-----------2--L-----------|--0--0--0--0--0--0--0--0--|
-----0--0--------0--2--3--|--------------------------|
--------------------------|--------------------------|


                             PM PM    PM PM    PM PM    >    >       >       
  Q    E  E  E  E  S S E     E  E  E  E  E  E  E  E     Q    Q    E  Q.      
--------------------------|--------------------------|----------------------|
--------------------------|--------------------------|----------------------|
--2-------------2--4-2----|--------2--------2--------|--7----7-------7------|
--0----0--2--4---------0--|--0--0--0--0--0--0--0--0--|--5----5-------5------|
--------------------------|--------------------------|----------------------|
--------------------------|--------------------------|----------------------|


  PM PM    PM PM    PM PM       PM PM    PM PM        
  E  E  E  E  E  E  E  E     E  E  E  E  E  E  E  E   
--------------------------|--------------------------|
--------------------------|-----------0--------------|
--------2--------0--------|--2--------0--------2--L--|
--------2--------0--------|--2-----------------2--L--|
--0--0-----0--0-----0--0--|-----0--0-----0--0--------|
--------------------------|--------------------------|


  PM PM    PM PM    PM PM       PM PM                                     
  E  E  E  E  E  E  E  E     E  E  E  E  E  E  E  E     W                 
--------------------------|--------------------------|-------------------|
--------------------------|--0-----------------------|-------------------|
--------2--------0--------|--0--------2--L-----------|-------------------|
--------2--------0--------|-----------2--L-----------|--7----------------|
--0--0-----0--0-----0--0--|-----0--0--------0--2--3--|--5----------------|
--------------------------|--------------------------|-------------------|


                                             >         >       
  E  E  E  E  Q       W                   E  Q.     E  Q.      
-------------------|-------------------|----------------------|
-------------------|-------------------|----------------------|
-------------------|-------------------|----------------------|
-------------------|--5----------------|----------------------|
--8--7--8--8--L----|--3----------------|-----5---------5------|
--6--5--6--6--L----|-------------------|-----3---------3------|


  W                   E  E  E  E  Q       W                 
-------------------|-------------------|-------------------|
-------------------|-------------------|-------------------|
-------------------|-------------------|-------------------|
--7----------------|-------------------|--5----------------|
--5----------------|--8--7--8--8--L----|--3----------------|
-------------------|--6--5--6--6--L----|-------------------|


     >         >         PM PM    PM PM    PM PM       PM PM    PM PM        
  E  Q.     E  Q.        E  E  E  E  E  E  E  E     E  E  E  E  E  E  E  E   
----------------------|--------------------------|--------------------------|
----------------------|--------------------------|-----------0--------------|
----------------------|--------2--------0--------|--2--------0--------2--L--|
----------------------|--------2--------0--------|--2-----------------2--L--|
-----3---------3------|--0--0-----0--0-----0--0--|-----0--0-----0--0--------|
-----1---------1------|--------------------------|--------------------------|


  PM PM    PM PM    PM PM       PM PM                 
  E  E  E  E  E  E  E  E     E  E  E  E  E  E  E  E   
--------------------------|--------------------------|
--------------------------|--0-----------------------|
--------2--------0--------|--0--------2--L-----------|
--------2--------0--------|-----------2--L-----------|
--0--0-----0--0-----0--0--|-----0--0--------0--2--3--|
--------------------------|--------------------------|


  PM PM    PM PM    PM PM       PM PM    PM PM        
  E  E  E  E  E  E  E  E     E  E  E  E  E  E  E  E   
--------------------------|--------------------------|
--------------------------|-----------0--------------|
--------2--------0--------|--2--------0--------2--L--|
--------2--------0--------|--2-----------------2--L--|
--0--0-----0--0-----0--0--|-----0--0-----0--0--------|
--------------------------|--------------------------|


  PM PM    PM PM    PM PM       PM PM                                     
  E  E  E  E  E  E  E  E     E  E  E  E  E  E  E  E     W                 
--------------------------|--------------------------|-------------------|
--------------------------|--0-----------------------|-------------------|
--------2--------0--------|--0--------2--L-----------|-------------------|
--------2--------0--------|-----------2--L-----------|--7----------------|
--0--0-----0--0-----0--0--|-----0--0--------0--0--0--|--7----------------|
--------------------------|--------------------------|--5----------------|


  W                   W                  
-------------------|-------------------||
-------------------|-------------------||
-------------------|-------------------||
--L----------------|--L----------------||
--L----------------|--L----------------||
--L----------------|--L----------------||










Lead Guitar:



                                      W                  
E||-------|-------|-------|-------|---------------------|
B||-------|-------|-------|-------|--20b----------------|
G||-------|-------|-------|-------|---------------------|
D||-------|-------|-------|-------|---------------------|
A||-------|-------|-------|-------|---------------------|
E||-------|-------|-------|-------|---------------------|


   H         E   Q        E      E   E   S   S  E   Q       Q     
------------20---------------|-----------------------------------|
---L------------20pbr-----L--|--20--17--20p-17-----17br-----L----|
-----------------------------|-----------------19----------------|
-----------------------------|-----------------------------------|
-----------------------------|-----------------------------------|
-----------------------------|-----------------------------------|


   E   Q.      H                           E  S S E  E  E  E  E  E   
------------------------|-------|-------|---------------------------|
---L---L-------L--------|-------|-------|---------------------------|
------------------------|-------|-------|--0--2-0----0--------------|
------------------------|-------|-------|---------2-----2--0--------|
------------------------|-------|-------|---------------------3--0--|
------------------------|-------|-------|---------------------------|


                      PM PM    PM PM    PM PM       PM PM    PM PM        
  W                   E  E  E  E  E  E  E  E     E  E  E  E  E  E  E  E   
-------------------|--------------------------|--------------------------|
-------------------|--------------------------|-----------0--------------|
-------------------|--------2--------0--------|--2--------0--------2--L--|
-------------------|--------2--------0--------|--2-----------------2--L--|
--L----------------|--0--0-----0--0-----0--0--|-----0--0-----0--0--------|
-------------------|--------------------------|--------------------------|


  PM PM    PM PM    PM PM       PM PM                 
  E  E  E  E  E  E  E  E     E  E  E  E  E  E  E  E   
--------------------------|--------------------------|
--------------------------|--0-----------------------|
--------2--------0--------|--0--------2--L-----------|
--------2--------0--------|-----------2--L-----------|
--0--0-----0--0-----0--0--|-----0--0--------0--2--3--|
--------------------------|--------------------------|


  PM PM    PM PM    PM PM       PM PM    PM PM        
  E  E  E  E  E  E  E  E     E  E  E  E  E  E  E  E   
--------------------------|--------------------------|
--------------------------|-----------0--------------|
--------2--------0--------|--2--------0--------2--L--|
--------2--------0--------|--2-----------------2--L--|
--0--0-----0--0-----0--0--|-----0--0-----0--0--------|
--------------------------|--------------------------|


  PM PM    PM PM    PM PM       PM PM                 
  E  E  E  E  E  E  E  E     E  E  E  E  E  E  E  E   
--------------------------|--------------------------|
--------------------------|--0-----------------------|
--------2--------0--------|--0--------2--L-----------|
--------2--------0--------|-----------2--L-----------|
--0--0-----0--0-----0--0--|-----0--0--------0--2--3--|
--------------------------|--------------------------|


  PM PM    PM PM    PM PM                             
  E  E  E  E  E  E  E  E     Q    E  E  E  E  S S E   
--------------------------|--------------------------|
--------------------------|--------------------------|
--------2--------2--------|--2-------------2--4-2----|
--0--0--0--0--0--0--0--0--|--0----0--2--4---------0--|
--------------------------|--------------------------|
--------------------------|--------------------------|


  PM PM    PM PM    PM PM                             
  E  E  E  E  E  E  E  E     Q    E  E  E  E  S S E   
--------------------------|--------------------------|
--------------------------|--------------------------|
--------2--------2--------|--2-------------2--4-2----|
--0--0--0--0--0--0--0--0--|--0----0--2--4---------0--|
--------------------------|--------------------------|
--------------------------|--------------------------|


  PM PM    PM PM    PM PM       PM PM    PM PM        
  E  E  E  E  E  E  E  E     E  E  E  E  E  E  E  E   
--------------------------|--------------------------|
--------------------------|-----------0--------------|
--------2--------0--------|--2--------0--------2--L--|
--------2--------0--------|--2-----------------2--L--|
--0--0-----0--0-----0--0--|-----0--0-----0--0--------|
--------------------------|--------------------------|


                                                        F5                
  PM PM    PM PM    PM PM       PM PM                                     
  E  E  E  E  E  E  E  E     E  E  E  E  E  E  E  E     W                 
--------------------------|--------------------------|-------------------|
--------------------------|--0-----------------------|-------------------|
--------2--------0--------|--0--------2--L-----------|-------------------|
--------2--------0--------|-----------2--L-----------|--3----------------|
--0--0-----0--0-----0--0--|-----0--0--------0--0--0--|--3----------------|
--------------------------|--------------------------|--1----------------|


                             G5                                        
  E   E  E  E  E  Q.         W                   E   E  E  E  E  E.    
--------------------------|-------------------|-----------------------|
--------------------------|-------------------|------------------5~---|
--------------------------|-------------------|---------5--6--7-------|
--------------------------|--5----------------|--5s--7----------------|
---------3-----3--5~------|--5----------------|-----------------------|
--3s--5-----5-------------|--3----------------|-----------------------|


  A                                                          
  Q    H.              W                   W                 
--5----5------------|--L----------------|--L----------------|
--5----5------------|--L----------------|--L----------------|
--6----6------------|--L----------------|--L----------------|
--7----7------------|--L----------------|--L----------------|
--7----7------------|--L----------------|--L----------------|
--5----5------------|--L----------------|--L----------------|


  H.           E  E     E   E  E  E   E  E  E   E   
--L------------------|---------5---------5---------|
--L------------0--0--|------5---------5---------5--|
--L------------0--0--|--7b--------7b--------7b-----|
--L------------------|-----------------------------|
--L------------------|-----------------------------|
--L------------------|-----------------------------|


  E  E   E  E  E   E  E  E      E  E  E   E  E  E  E  E    
--5---------5---------5------|-----5---------5------------|
---------5---------5---------|--5---------5---------------|
-----7b--------7b--------7b--|--------7b--------7--5--7b--|
-----------------------------|----------------------------|
-----------------------------|----------------------------|
-----------------------------|----------------------------|


  H.              E    E     E  E  E  E  E  E  E  E   
--------------------------|--5--------------5-----5--|
----------------<>5--<>0--|--5--------------5-----5--|
--L~----------------------|-----9--7--5--6-----------|
--------------------------|--------------------------|
--------------------------|--------------------------|
--------------------------|--------------------------|


  E  E  E  E  E  E  E  E      S E  S E  E  E  E  E   E   
--L--5-----------5---------|----9----8-----7------------|
--L--5-----------5---------|----------------------------|
--------7--5--6--------7s--|--9----8----7-----6--5s--6--|
---------------------------|----------------------------|
---------------------------|----------------------------|
---------------------------|----------------------------|


          NH                                                 
  E  E    E  E  Q    E  E     S  S E  E    E   E  E   E  E   
--5--5---------------------|--------------------------------|
---------------------------|-------8----------10---------8--|
--------<>7--5--L----5--6--|--7s-9----9s--11------7s--9-----|
---------------------------|--------------------------------|
---------------------------|--------------------------------|
---------------------------|--------------------------------|


  E    E   E  E   E  E  E    E      E   E    E   E   S    E      S  E  E   
--------------------------------|---------------12------------------------|
----------10---------8----------|--10--12b---L------12pb-12pbr--10--------|
--9s--11------7s--9-----9s--11--|----------------------------------11--8--|
--------------------------------|-----------------------------------------|
--------------------------------|-----------------------------------------|
--------------------------------|-----------------------------------------|


  H          H            E  Q.     E  E  E  E     Q.     E  E  E  E  E   
-----------------------|------------------------|------------------------|
--5----------8---------|------------5-----------|--5------5--------------|
--7b--------10b--------|--5---------5-----5-----|--5------5--8--7--5-----|
-----------------------|-----7---------5-----7--|---------------------7--|
-----------------------|------------------------|------------------------|
-----------------------|------------------------|------------------------|


  Q    E  E  E  E  E  E     Q.     E  E   E  E   E   
-------------------------|--------------------------|
--5----------------------|----------------------17--|
--5----------------------|--------------------------|
-------7--5--------------|--7------7--LS--9--9------|
-------------7--6--5--3--|--------------------------|
-------------------------|--------------------------|


   E   E   S  S  S  S  S  S  S  S  S  S  S  S  
----------20-17-------20-17-------20-17-------|
--17--17--------20-17-------20-17-------20-17-|
----------------------------------------------|
----------------------------------------------|
----------------------------------------------|
----------------------------------------------|


   S  S  S  S  S  S  S  S  S  S  E   E   E   
--20-17-------20-17-------20-17-------------|
--------20-17-------20-17-------17--17--17--|
--------------------------------------------|
--------------------------------------------|
--------------------------------------------|
--------------------------------------------|


   E    E   E   E    E   E   E   E      Q      Q      E  E   Q     
-----------17-----------17--17--20--|-----------------------------|
-------17-----------17------17------|--17-----17------L-----------|
--19b----------19b------------------|--19b----19b-----L-----\5----|
------------------------------------|-----------------------------|
------------------------------------|-----------------------------|
------------------------------------|-----------------------------|


  Q    E  E  E  E  E  E     E  E  E  E  E  E  E  E    
-------------------------|---------------------------|
-------------------------|---------------------------|
-------------------------|--------------5-----5--7b--|
--7----7--7--5-----------|--------7--7-----7---------|
----------------7--6--5--|--3--0---------------------|
-------------------------|---------------------------|


  E  E  S S E  S S E  E  E     Q     Q      Q    E  E     H        E  E  E  E   
-----5----------------------|--------------------------|--5--------8--5--------|
--------8-5-----------------|--8b----8br----L----8--8--|-----------------8-----|
--L---------7--7-5----5--5--|--------------------------|--------------------5--|
-------------------7--------|--------------------------|-----------------------|
----------------------------|--------------------------|-----------------------|
----------------------------|--------------------------|-----------------------|


  E  E  E  E  Q    E  E     E   H        Q.         E   Q.      E   Q.      
-------------------------|----------------------|--------------------------|
-------------------------|----------------------|--------------------------|
--7--5--7--7--L----7--5--|--7s--9--------L------|--12s--5------12s--5------|
-------------------------|----------------------|--------------------------|
-------------------------|----------------------|--------------------------|
-------------------------|----------------------|--------------------------|


  H        E  E  E  E     E  E  E  E  Q      E  E     H.            Q     
-----------------------|---------------------------|---------------------|
-----------------------|---------------------------|---------------------|
-----------------------|------------------------5--|--7b------------L----|
--7--------5-----------|---------------------------|---------------------|
--------------7--5--3--|--5--3--5--5--L----5g7-----|---------------------|
-----------------------|---------------------------|---------------------|


   Q     Q     Q     Q       W                   W                 
--------------------------|-------------------|-------------------|
--------------------------|-------------------|-------------------|
--\x----\x----\x----\x----|-------------------|-------------------|
--------------------------|--2----------------|--L----------------|
--------------------------|--0----------------|--L----------------|
--------------------------|-------------------|-------------------|


                                          PM PM    PM PM    PM PM  
  W                   W                   E  E  E  E  E  E  E  E   
-------------------|-------------------|--------------------------|
-------------------|-------------------|--------------------------|
-------------------|-------------------|--------2--------0--------|
--L----------------|--L----------------|--------2--------0--------|
--L----------------|--L----------------|--0--0-----0--0-----0--0--|
-------------------|-------------------|--------------------------|


     PM PM    PM PM          PM PM    PM PM    PM PM  
  E  E  E  E  E  E  E  E     E  E  E  E  E  E  E  E   
--------------------------|--------------------------|
-----------0--------------|--------------------------|
--2--------0--------2--L--|--------2--------0--------|
--2-----------------2--L--|--------2--------0--------|
-----0--0-----0--0--------|--0--0-----0--0-----0--0--|
--------------------------|--------------------------|


     PM PM                                                         
  E  E  E  E  E  E  E  E     W                   W                 
--------------------------|-------------------|-------------------|
--0-----------------------|-------------------|-------------------|
--0--------2--L-----------|-------------------|-------------------|
-----------2--L-----------|--7----------------|--L----------------|
-----0--0--------0--0--0--|--7----------------|--L----------------|
--------------------------|--5----------------|--L----------------|


  W                  
-------------------||
-------------------||
-------------------||
--L----------------||
--L----------------||
--L----------------||




Duration Legend
---------------
W - whole
H - half
Q - quarter
E - 8th
S - 16th
T - 32nd
X - 64th
. - note dotted
|-n-|  - n-tuplets


Tablature Legend
----------------
L - tied note
x - dead note
g - grace note
(n) - ghost note
> - accentuded note
NH - natural harmonic
AH - artificial harmonic
TH - tapped harmonic
SH - semi harmonic
PH - pitch harmonic
h - hammer on
p - pull off
b - bend
br - bendRelease
pb - preBend
pbr - preBendRelease
brb - bendReleaseBend
\n/ - tremolo bar dip
\n - tremolo bar dive
-/n - tremolo bar Release up
/n\ - tremolo bar inverted dip
/n - tremolo bar return
-\n - tremolo bar Release down
S - shift slide
s - legato slide
/ -  slide into from below or out of upwards
\ -  slide into from above or out of downwards
~ - vibrato
W - wide vibrato
tr - trill
TP - tremolo picking
T - tapping
S - slap
P - pop
< - fade in
^ - brush up
v - brush down
comments
We did not receive enough feedback on this tab! Please rate:
print report bad tab
1 2 3 4 5
1 comment total.
0 reply
guitarman108 wrote on January 11 2010, 10:53 pm

great tab!

I want to post or [tab]
guest
You may want to rate the tab now too:
select rating
Please do not post tabs as comments. Select "correction" instead!