Oops, an error
Loading. Please wait.

Flirtin With Disaster Tab

ver1
ver1

Solo

Whole song

Interactive

More versions @911Tabs.com
38,903 views 42 this week
6 commentsread comments
1 2 3 4 5
excellent!
x 10
Autoscroll
+/-
esc
set tempo
stop
Difficulty
novice
Hey! There's an official Ultimate Guitar app which is ideal
for learning songs when you're away from computer. Get the app
WARNING: You are trying to view
                                    content from Ultimate-Guitar.com
                                    in an unauthorized application,
                                    which is prohibited.

                                    Please use an official Ultimate
                                    Guitar Tabs application for iPhone,
                                    iPad or Android to access legitimate
                                    chords, guitar, bass, and drum tabs
                                    from Ultimate-Guitar.com database.

                                    Type "ultimate guitar tabs" in Apple
                                    App Store's or Android Market's
                                    search to find the application.
                               3x                                             
E||----------------------------||-------------------------|------------------|
B||----------------------------||--------------------7----|------------------|
G||*--------------------------*||--------------------7----|------------------|
D||*--------------------------*||--------------------7----|------------------|
A||----------------------------||--------------7h-9-------|------------------|
E||---0--0--0--0--0--0--0--0---||--0--0--0--0--------0----|------------------|


                                                                
|--------------------|-------------------|---------------------|
|-----------------9--|--9\---------------|------------------7--|
|*----------------9--|--9\---------------|------------------7--|
|*----------------9--|--9\---------------|------------7--9--7--|
|--------------------|-------------------|---------------------|
|--------------------|-------------------|---------------------|


                   2x                                             
-------------------||-------------------|------------------------|
-------------------||-------------------|----9--9--7----7--7-----|
------------------*||-------------------|----9--9--7----7--7--6--|
------------------*||----------------9--|----9--9--7----7--7--6--|
-------------------||----------------7--|----7--7--5----5--5--4--|
-------------------||-------------------|------------------------|


                                                                           
------------------------|------------------------|------------------------|
------------------------|------------------------|------------------------|
----6--6-------------2--|-------------2----------|-------------2----------|
----6--6-------------2--|-------4-----2--4----2--|-------4--------4-------|
----4--4----5--4--2--0--|----0-----0----------0--|----0-----0----------5--|
------------------------|------------------------|---------------------3--|


                                                                           
------------------------|------------------------|------------------------|
------------------------|------------------------|------------------------|
------------------------|-------------2----------|-------------2----------|
---------------------2--|-------4--------4----2--|-------4--------4----2--|
-------7-----5--7----0--|----0-----0----------0--|----0-----0----------0--|
----3-----3-------------|------------------------|------------------------|


                                                                           
------------------------|------------------------|------------------------|
------------------------|------------------------|-------------2--2----2--|
-------------2----------|---------------------2--|----------2--2--2----2--|
-------4--------4-------|---------------------2--|-------4--2-------------|
----0-----0----------5--|-------7-----5--7----0--|----0-------------------|
---------------------3--|----3-----3-------------|------------------------|


                                                                           
------------------------|------------------------|------------------------|
------------------------|------------------------|------------------------|
-------------2----------|-------------2----------|------------------------|
-------4-----2--4----2--|-------4--------4-------|---------------------2--|
----0-----0----------0--|----0-----0----------5--|-------7-----5--7----0--|
------------------------|---------------------3--|----3-----3-------------|


                                                                           
------------------------|------------------------|------------------------|
------------------------|------------------------|------------------------|
-------------2----------|-------------2----------|-------------2----------|
-------4--------4----2--|-------4--------4----2--|-------4--------4-------|
----0-----0----------0--|----0-----0----------0--|----0-----0----------5--|
------------------------|------------------------|---------------------3--|


                                                                           
------------------------|------------------------|------------------------|
------------------------|------------------------|----------------4----5--|
---------------------2--|----------2--2-------4--|----------------4----4--|
---------------------2--|-------4--2-----4----4--|----------4--6----------|
-------7-----5--7----0--|----0-----0----------2--|----4h-6----------------|
----3-----3-------------|------------------------|------------------------|


                                                                           
----------------------|----------------------|----------------------------|
----5----4----4-------|----------------------|----------------------------|
----4----4----4----7--|----7----6----6----4--|-------------------------4--|
-------------------7--|----7----7----7----4--|----------4--6p-4-----4--4--|
----------------------|-------------------2--|----4h-6-----------6-----2--|
----------------------|----------------------|----------------------------|


                                                                        
------------------------|----------------------|-----------------------|
----------------4----5--|----5----4----4-------|-----------------------|
----------------4----4--|----4----4----4----7--|----7----6----6-----4--|
----------4--6----------|-------------------7--|----7----7----7-----4--|
----4h-6----------------|----------------------|-----------------0--2--|
------------------------|----------------------|-----------------------|


                                                                             
----------------------------|------------------------|----------------------|
----------------------------|----------------4----5--|----5----4----4-------|
-------------------------4--|----------------4----4--|----4----4----4----7--|
----------4--6p-4-----4--4--|----------4--6----------|-------------------7--|
----4h-6-----------6-----2--|----4h-6----------------|----------------------|
----------------------------|------------------------|----------------------|


                                                                             
----------------------|----------------------------|------------------------|
----------------------|----------------------------|----------------4----5--|
----7----6----6----4--|-------------------------4--|----------------4----4--|
----7----7----7----4--|----------4--6p-4-----4--4--|----------4--6----------|
-------------------2--|----4h-6-----------6-----2--|----4h-6----------------|
----------------------|----------------------------|------------------------|


                                                                       
----------------------|-----------------------|-----------------------|
----5----4----4-------|-----------------------|-----------------------|
----4----4----4----7--|----7----6----6-----4--|------4--4--4--4----2--|
-------------------7--|----7----7----7-----4--|------4--4--4--4----0--|
----------------------|-----------------0--2--|------2--2--2--2-------|
----------------------|-----------------------|-----------------------|


                                                                    
---------------------|--------------------|------------------------|
---------------------|--------------------|------------------------|
------------2-----2--|-----------------4--|----4--x--4----4--x--4--|
------------0-----2--|-----------------4--|----4--x--4----4--x--4--|
---------------3b-0--|--------------0--2--|----------2----------2--|
---------------------|--------------------|------------------------|


                                                                    
------------------------|---------------------|--------------------|
---------------------3--|---------------------|--------------------|
----4--x--4----4--x--2--|------------2-----2--|-----------------4--|
----4--x--4----4--x--0--|------------0-----2--|-----------------4--|
----------2----2--------|---------------3b-0--|--------------0--2--|
------------------------|---------------------|--------------------|


                                                                                
------------------------|-------------------------------|----------------------|
------------------------|-------------------------------|----------------------|
----4--x--4----4--x-----|-------------------------------|--2----------2-----2--|
----4--x--4----4--x--4--|------2----3----4----5----6----|--0----------0-----2--|
----------2----------2--|------0----1----2----3----4----|----------------3b-0--|
------------------------|-------------------------------|----------------------|


                                                                       
--------------------|------------------------|------------------------|
--------------------|------------------------|---------------------3--|
-----------------4--|----4--x--4----4--x-----|----4--x-------------2--|
-----------------4--|----4--x--4----4--x--4--|----4--x--4----4--x--0--|
--------------0--2--|----------2----------2--|----2--x--2----4--x--0--|
--------------------|------------------------|------------------------|


                                                              
---------------------|--------------------|------------------|
---------------------|--------------------|------------------|
------------------2--|--------------------|------------------|
------------0-----2--|-----------------2--|------------------|
---------------3b-0--|-----------------2--|------------------|
---------------------|--------------3b-0--|------------------|


                                                                                
---------------------|------------------|-------------------|------------------|
------------------7--|------------------|----------------9\-|------------------|
------------------7--|------------------|----------------9\-|------------------|
------------------7--|------------------|----------------9\-|------------------|
------------7h-9--5--|------------------|----------------7\-|------------------|
---------------------|------------------|----------------0--|------------------|


                                                              
---------------------|------------------|--------------------|
------------------7--|------------------|-----------------9--|
------------------7--|------------------|-----------------9--|
------------------7--|------------------|-----------------9--|
------------7h-9--5--|------------------|-----------------7--|
---------------------|------------------|--------------0-----|


                                                                           
------------------------|------------------------|------------------------|
----9-----7----7--------|------------------------|------------------------|
----9-----7----7-----6--|----6--6-------------2--|-------------2----------|
----9--9--7----7-----6--|----6--6-------------2--|-------4-----2--4----2--|
----7--7--5----5--5--4--|----4--4----5--4--2--0--|----0-----0----------0--|
------------------------|------------------------|------------------------|


                                                                           
------------------------|------------------------|------------------------|
------------------------|------------------------|------------------------|
-------------2----------|------------------------|-------------2----------|
-------4--------4-------|---------------------2--|-------4--------4----2--|
----0-----0----------5--|-------7-----5--7----0--|----0-----0----------0--|
---------------------3--|----3-----3-------------|------------------------|


                                                                           
------------------------|------------------------|------------------------|
------------------------|------------------------|------------------------|
-------------2----------|-------------2----------|---------------------2--|
-------4--------4----2--|-------4--------4-------|---------------------2--|
----0-----0----------0--|----0-----0----------5--|-------7-----5--7----0--|
------------------------|---------------------3--|----3-----3-------------|


                                                                           
------------------------|------------------------|------------------------|
-------------2--2----2--|------------------------|------------------------|
----------2--2--2----2--|-------------2----------|-------------2----------|
-------4--2-------------|-------4-----2--4----2--|-------4--------4-------|
----0-------------------|----0-----0----------0--|----0-----0----------5--|
------------------------|------------------------|---------------------3--|


                                                                           
------------------------|------------------------|------------------------|
------------------------|------------------------|------------------------|
------------------------|-------------2----------|-------------2----------|
---------------------2--|-------4--------4----2--|-------4--------4----2--|
-------7-----5--7----0--|----0-----0----------0--|----0-----0----------0--|
----3-----3-------------|------------------------|------------------------|


                                                                           
------------------------|------------------------|------------------------|
------------------------|------------------------|------------------------|
-------------2----------|---------------------2--|----------2--2-------4--|
-------4--------4-------|---------------------2--|-------4--2-----4----4--|
----0-----0----------5--|-------7-----5--7----0--|----0-----0----------2--|
---------------------3--|----3-----3-------------|------------------------|


                                                                       
------------------------|----------------------|----------------------|
----------------4----5--|----5----4----4-------|----------------------|
----------------4----4--|----4----4----4----7--|----7----6----6----4--|
----------4--6----------|-------------------7--|----7----7----7----4--|
----4h-6----------------|----------------------|-------------------2--|
------------------------|----------------------|----------------------|


                                                                             
----------------------------|------------------------|----------------------|
----------------------------|----------------4----5--|----5----4----4-------|
-------------------------4--|----------------4----4--|----4----4----4----7--|
----------4--6p-4-----4--4--|----------4--6----------|-------------------7--|
----4h-6-----------6-----2--|----4h-6----------------|----------------------|
----------------------------|------------------------|----------------------|


                                                                              
-----------------------|----------------------------|------------------------|
-----------------------|----------------------------|----------------4----5--|
----7----6----6-----4--|-------------------------4--|----------------4----4--|
----7----7----7-----4--|----------4--6p-4-----4--4--|----------4--6----------|
-----------------0--2--|----4h-6-----------6-----2--|----4h-6----------------|
-----------------------|----------------------------|------------------------|


                                                                           
----------------------|----------------------|----------------------------|
----5----4----4-------|----------------------|----------------------------|
----4----4----4----7--|----7----6----6----4--|-------------------------4--|
-------------------7--|----7----7----7----4--|----------4--6p-4-----4--4--|
----------------------|-------------------2--|----4h-6-----------6-----2--|
----------------------|----------------------|----------------------------|


                                                                        
------------------------|----------------------|-----------------------|
----------------4----5--|----5----4----4-------|-----------------------|
----------------4----4--|----4----4----4----7--|----7----6----6-----4--|
----------4--6----------|-------------------7--|----7----7----7-----4--|
----4h-6----------------|----------------------|-----------------0--2--|
------------------------|----------------------|-----------------------|


                                                                   
-----------------------|---------------------|--------------------|
-----------------------|---------------------|--------------------|
------4--4--4--4----2--|------------2-----2--|-----------------4--|
------4--4--4--4----0--|------------0-----2--|-----------------4--|
------2--2--2--2-------|---------------3b-0--|--------------0--2--|
-----------------------|---------------------|--------------------|


                                                                        
------------------------|------------------------|---------------------|
------------------------|---------------------3--|---------------------|
----4--x--4----4--x--4--|----4--x--4----4--x--2--|------------2-----2--|
----4--x--4----4--x--4--|----4--x--4----4--x--0--|------------0-----2--|
----------2----------2--|----------2----2--------|---------------3b-0--|
------------------------|------------------------|---------------------|


                                                                              
--------------------|------------------------|-------------------------------|
--------------------|------------------------|-------------------------------|
-----------------4--|----4--x--4----4--x-----|-------------------------------|
-----------------4--|----4--x--4----4--x--4--|------2----3----4----5----6----|
--------------0--2--|----------2----------2--|------0----1----2----3----4----|
--------------------|------------------------|-------------------------------|


                                                                     
----------------------|--------------------|------------------------|
----------------------|--------------------|------------------------|
--2----------2-----2--|-----------------4--|----4--x--4----4--x-----|
--0----------0-----2--|-----------------4--|----4--x--4----4--x--4--|
----------------3b-0--|--------------0--2--|----------2----------2--|
----------------------|--------------------|------------------------|


                                                                    
------------------------|---------------------|--------------------|
---------------------3--|---------------------|--------------------|
----4--x-------------2--|------------------2--|--------------------|
----4--x--4----4--x--0--|------------0-----2--|-----------------2--|
----2--x--2----4--x--0--|---------------3b-0--|-----------------2--|
------------------------|---------------------|--------------3b-0--|


                                                                               
-------------------------|----------------------------|-----------------------|
-------------------------|------------12--------------|-----------------------|
-------------------------|--11--9---------9-----------|-----------------------|
---------------9--11--9--|---------9---------------7--|--------------7--9h-7--|
--------7/-11------------|-------------------------5--|--------7h-9-----------|
-------------------------|----------------------------|-----------------------|


                                                                              
--------------------------|-------------------------|------------------------|
--------------------------|-------------------------|------------------------|
--9--7--------------------|----4--2-----------------|---------------------9--|
--------9--7--0--------2--|----------4p-2-----------|---------------------9--|
-----------------------0--|----------------0h-2-----|-------2p-0--3p-0----7--|
--------------------------|----------------------3--|----3-------------------|


                                                                              
-------------------------|-------------------------|-------------------------|
-------------------------|-------------------------|-------------------------|
-----------------9----9--|-----9-----9----9--------|-------------------------|
----------9h-11--9-------|--9-----8--9----9-----9--|---------------9--11--9--|
------11-----------------|-------------------0--7--|--------9/-11------------|
-------------------------|----------------------0--|-------------------------|


                                                     
----------------------------|-----------------------|
------------12--------------|-----------------------|
--11p-9---------9-----------|-----------------------|
---------9---------------7--|--------------7--9p-7--|
-------------------------5--|--------7h-9-----------|
----------------------------|-----------------------|


                                                                                
---------------------------|-------------------------|-------------------------|
---------------------------|-------------------------|-------------------------|
--9p-7---------------------|----4--2-----------------|----2p-0-----------------|
--------9--7--0------0--2--|----------4--2-----------|----------2p-0-----------|
---------------------------|----------------0--0-----|----------------3p-0-----|
---------------------------|----------------------3--|----------------------2r-|


                                           
-------------------|----------------------|
-------------------|------------------12--|
-------------------|------------------14b-|
-------------------|----------------------|
-------------------|----------------------|
--------------2----|--0------------0------|


                                             
----12----------12----------12--12--12--12--|
----12------12--12------12--12--12--12--12--|
--------14b---------14b---------------------|
--------------------------------------------|
--------------------------------------------|
--------------------------------------------|


                                                                    
------12--12------------12------15b-|----15--12--------------------|
------12--12--15b-15b-------12------|-----------15-15b-----15--15--|
--14b-------------------------------|------------------------------|
------------------------------------|------------------------------|
------------------------------------|------------------------------|
------------------------------------|------------------------------|


                                                                               
-----------------------------------|------------------------------------------|
--15p-12------12--12-----------13\-|--12------12------15--13--13--12--12------|
----------14--12--12-----------13--|--12------12--12----------------------14--|
------------------------7/-14------|------14----------------------------------|
-----------------------------------|------------------------------------------|
-----------------------------------|------------------------------------------|


                                                                         
------------------------------------------|-----------------------------|
------------------------------------------|---------------------12--12--|
--12------12----------------------12--12--|------12--12--12\----12--12--|
------14------14--12------12--12--12--12--|-----------------------------|
----------------------14------------------|------14----------x----------|
------------------------------------------|-----------------------------|


                                                                 
-----------------------------|----------------------------------|
-----------------------------|----0-----------------------------|
----14--14b-14b-14\-0--0--2b-|----2--2--2--2--2--2--0--2--2p-0--|
-----------------------------|----------------------------------|
-----------------------------|----------------------------------|
-----------------------------|----------------------------------|


                                                        
--------------------------------|----------------------|
--------------------------------|----------------------|
-----0--2p-0--------------------|----------------------|
--2-----------2--0--2-----------|-------------------2--|
-----------------------0h-2-----|----------------------|
-----------------------------2b-|----------2--0h-3-----|


                                                                                
------------------------12--12--|--15p-12------15p-12--------------------------|
--------------------12--12--12--|----------12----------15--15p-12--12--15b-15b-|
--------------------------------|----------------------------------------------|
-------2--2--2/-12--------------|----------------------------------------------|
comments
print report bad tab
6 comments total. Showing first comments.
0 reply
AcdcTXfan wrote on October 7 2007, 08:13 pm

seems right, but it would help if the parts were labebed

0 reply
2pachrist wrote on April 15 2008, 03:01 pm

yea labeling the parts would help... excellent tab tho!

+1 reply
Brennon wrote on November 26 2008, 01:01 pm

whats up with the bottom with the four strings is it bass?
good tab other than that

I want to post or [tab]
guest
You may want to rate the tab now too:
select rating
Please do not post tabs as comments. Select "correction" instead!