Oops, an error
Loading. Please wait.

One Mans Pleasure Tab

ver1
ver1

Whole song

Interactive

More versions @911Tabs.com
1,194 views 3 this week
no commentswrite comment
1 2 3 4 5
please rate
Autoscroll
+/-
esc
set tempo
stop
Contributor
Tabbers playing skills
advanced ++
WARNING: You are trying to view
                                    content from Ultimate-Guitar.com
                                    in an unauthorized application,
                                    which is prohibited.

                                    Please use an official Ultimate
                                    Guitar Tabs application for iPhone,
                                    iPad or Android to access legitimate
                                    chords, guitar, bass, and drum tabs
                                    from Ultimate-Guitar.com database.

                                    Type "ultimate guitar tabs" in Apple
                                    App Store's or Android Market's
                                    search to find the application.
Band/Artist: Molly Hatchet
Song: One Man's Pleasure
Album: Flirtin' With Disaster
Transcribed by: TexasFury




Rhythm - left
This is revision #1 (May 23, 2008).



     W                   W                   W                 
E||-------------------|-------------------|-------------------|
B||-------------------|-------------------|-------------------|
G||-------------------|-------------------|-------------------|
D||-------------------|-------------------|-------------------|
A||-------------------|-------------------|-------------------|
E||-------------------|-------------------|-------------------|


  W                   W                   W                   W                 
-------------------|-------------------|-------------------|-------------------|
-------------------|-------------------|-------------------|-------------------|
-------------------|-------------------|-------------------|-------------------|
-------------------|-------------------|-------------------|-------------------|
-------------------|-------------------|-------------------|-------------------|
-------------------|-------------------|-------------------|-------------------|


        PM   PM PM   PM   PM                  PM   PM         PM          
  E  E  S  S S  S  S S  S S  S  S E     E  E  S  S S  S  E  S S  E   E    
-------------------------------------|-----------------------------------|
-------------------------------------|-----------------------------------|
----------------------------------2--|----------------2~-L---------------|
-----2-----4-------5----4---------2--|-----2-----4----------4------------|
--0-----0----0--0----0----0--3h-4----|--0-----0----0----------0--3b--3b--|
-------------------------------------|-----------------------------------|


        PM   PM PM   PM   PM                  PM   PM         PM          
  E  E  S  S S  S  S S  S S  S  S E     E  E  S  S S  S  E  S S  E   E    
-------------------------------------|-----------------------------------|
-------------------------------------|-----------------------------------|
----------------------------------2--|----------------2~-L---------------|
-----2-----4-------5----4---------2--|-----2-----4----------4------------|
--0-----0----0--0----0----0--3h-4----|--0-----0----0----------0--3b--3b--|
-------------------------------------|-----------------------------------|


        PM   PM PM   PM   PM                  PM   PM         PM          
  E  E  S  S S  S  S S  S S  S  S E     E  E  S  S S  S  E  S S  E   E    
-------------------------------------|-----------------------------------|
-------------------------------------|-----------------------------------|
----------------------------------2--|----------------2~-L---------------|
-----2-----4-------5----4---------2--|-----2-----4----------4------------|
--0-----0----0--0----0----0--3h-4----|--0-----0----0----------0--3b--3b--|
-------------------------------------|-----------------------------------|


        PM   PM PM   PM   PM                  PM   PM         PM          
  E  E  S  S S  S  S S  S S  S  S E     E  E  S  S S  S  E  S S  E   E    
-------------------------------------|-----------------------------------|
-------------------------------------|-----------------------------------|
----------------------------------2--|----------------2~-L---------------|
-----2-----4-------5----4---------2--|-----2-----4----------4------------|
--0-----0----0--0----0----0--3h-4----|--0-----0----0----------0--3b--3b--|
-------------------------------------|-----------------------------------|


        PM   PM PM   PM   PM                  PM   PM         PM          
  E  E  S  S S  S  S S  S S  S  S E     E  E  S  S S  S  E  S S  E   E    
-------------------------------------|-----------------------------------|
-------------------------------------|-----------------------------------|
----------------------------------2--|----------------2~-L---------------|
-----2-----4-------5----4---------2--|-----2-----4----------4------------|
--0-----0----0--0----0----0--3h-4----|--0-----0----0----------0--3b--3b--|
-------------------------------------|-----------------------------------|


        PM   PM PM   PM   PM                  PM   PM         PM          
  E  E  S  S S  S  S S  S S  S  S E     E  E  S  S S  S  E  S S  E   E    
-------------------------------------|-----------------------------------|
-------------------------------------|-----------------------------------|
----------------------------------2--|----------------2~-L---------------|
-----2-----4-------5----4---------2--|-----2-----4----------4----4b--4b--|
--0-----0----0--0----0----0--3h-4----|--0-----0----0----------0----------|
-------------------------------------|-----------------------------------|


        PM   PM PM   PM   PM                  PM   PM         PM          
  E  E  S  S S  S  S S  S S  S  S E     E  E  S  S S  S  E  S S  E   E    
-------------------------------------|-----------------------------------|
-------------------------------------|-----------------------------------|
----------------------------------2--|----------------2~-L---------------|
-----2-----4-------5----4---------2--|-----2-----4----------4------------|
--0-----0----0--0----0----0--3h-4----|--0-----0----0----------0--3b--3b--|
-------------------------------------|-----------------------------------|


        PM   PM PM   PM   PM                  PM   PM         PM          
  E  E  S  S S  S  S S  S S  S  S E     E  E  S  S S  S  E  S S  E   E    
-------------------------------------|-----------------------------------|
-------------------------------------|-----------------------------------|
----------------------------------2--|----------------2~-L---------------|
-----2-----4-------5----4---------2--|-----2-----4----------4----4b--4b--|
--0-----0----0--0----0----0--3h-4----|--0-----0----0----------0----------|
-------------------------------------|-----------------------------------|


  PM                                   PM   PM PM   PM   PM          
  E  E   S S E  E  E   S S E     E  E  S  S S  S  S S  S S  S  S E   
------------------------------|-------------------------------------|
------------------------------|-------------------------------------|
------------------------------|----------------------------------2--|
----------------7--7-----7-9--|-----2-----4-------5----4---------2--|
--5--5-----5-7--5--5--/9------|--0-----0----0--0----0----0--3h-4----|
--3--3--/7--------------------|-------------------------------------|


        PM   PM         PM            PM                           
  E  E  S  S S  S  E  S S  E   E      E  E   S S E  E  E   S S E   
-----------------------------------|------------------------------|
-----------------------------------|------------------------------|
----------------2~-L---------------|------------------------------|
-----2-----4----------4------------|----------------7--7-----7-9--|
--0-----0----0----------0--3b--3b--|--5--5-----5-7--5--5--/9------|
-----------------------------------|--3--3--/7--------------------|


        PM   PM PM   PM   PM                                        
  E  E  S  S S  S  S S  S S  S  S E     E  S S S S S  S E  E  Q     
-------------------------------------|-----------------------------|
-------------------------------------|-----------------------------|
----------------------------------2--|-----------------------------|
-----2-----4-------5----4---------2--|-----7-5-4-----------7--L----|
--0-----0----0--0----0----0--3h-4----|--0--------7-3h-4-0--5--L----|
-------------------------------------|-----------------------------|


        PM   PM PM   PM   PM                  PM   PM         PM          
  E  E  S  S S  S  S S  S S  S  S E     E  E  S  S S  S  E  S S  E   E    
-------------------------------------|-----------------------------------|
-------------------------------------|-----------------------------------|
----------------------------------2--|----------------2~-L---------------|
-----2-----4-------5----4---------2--|-----2-----4----------4------------|
--0-----0----0--0----0----0--3h-4----|--0-----0----0----------0--3b--3b--|
-------------------------------------|-----------------------------------|


        PM   PM PM   PM   PM                  PM   PM         PM          
  E  E  S  S S  S  S S  S S  S  S E     E  E  S  S S  S  E  S S  E   E    
-------------------------------------|-----------------------------------|
-------------------------------------|-----------------------------------|
----------------------------------2--|----------------2~-L---------------|
-----2-----4-------5----4---------2--|-----2-----4----------4----4b--4b--|
--0-----0----0--0----0----0--3h-4----|--0-----0----0----------0----------|
-------------------------------------|-----------------------------------|


        PM   PM                         PM   PM                    
  E  E  S  S E  E  S S S  S E     E  E  S  S S  S  E  S S E   E    
-------------------------------|----------------------------------|
----------------------------3--|----------------3~-L--------------|
-----2-----4----5--4-----------|-----2-----4----------4-----------|
--0-----0----0-------0-3p-0----|--0-----0----0----------0-3b--3b--|
-------------------------------|----------------------------------|
-------------------------------|----------------------------------|


        PM   PM PM   PM   PM                  PM   PM        PM          
  E  E  S  S S  S  S S  S S  S  S E     E  E  S  S S  S E  S S  E  S  S  
-------------------------------------|----------------------------------|
-------------------------------------|----------------------------------|
----------------------------------2--|----------------2-L---------------|
-----2-----4-------5----4---------2--|-----2-----4---------4------------|
--0-----0----0--0----0----0--3h-4----|--0-----0----0---------0--3--3p-0-|
-------------------------------------|----------------------------------|


  PM                                   PM   PM PM   PM   PM          
  E  E   S S E  E  E   S S E     E  E  S  S S  S  S S  S S  S  S E   
------------------------------|-------------------------------------|
------------------------------|-------------------------------------|
------------------------------|----------------------------------2--|
----------------7--7-----7-9--|-----2-----4-------5----4---------2--|
--5--5-----5-7--5--5--/9------|--0-----0----0--0----0----0--3h-4----|
--3--3--/7--------------------|-------------------------------------|


        PM   PM         PM            PM                           
  E  E  S  S S  S  E  S S  E   E      E  E   S S E  E  E   S S E   
-----------------------------------|------------------------------|
-----------------------------------|------------------------------|
----------------2~-L---------------|------------------------------|
-----2-----4----------4------------|----------------7--7-----7-9--|
--0-----0----0----------0--3b--3b--|--5--5-----5-7--5--5--/9------|
-----------------------------------|--3--3--/7--------------------|


        PM   PM PM   PM   PM                                         
  E  E  S  S S  S  S S  S S  S  S E     E  S S S S S  S E  E  S E.   
-------------------------------------|------------------------------|
-------------------------------------|------------------------------|
----------------------------------2--|------------------------------|
-----2-----4-------5----4---------2--|-----7-5-4-----------7--L-----|
--0-----0----0--0----0----0--3h-4----|--0--------7-3h-4-0--5--L-7---|
-------------------------------------|--------------------------5---|


                             >                                            
  E.  S E  E     E  E  S S S S E  E   S E.     E  E  S S S S E  E  S E.   
--------------|-----------------------------|----------------------------|
--------------|-----------------------------|----------------------------|
--------------|-----------------------------|----------------------------|
--7--------7--|-------------------------2---|-------------------7--L-----|
--5---7-L--5--|--2--2--4-----5--------4-----|--2--2--4-----5----5--L-7---|
------5-L-----|--0--0----0-0---0--3b--------|--0--0----0-0-----------5---|


              >                                            
  E  E  S S S S E  E   S E.     E  E  S S S S E  E  S E.   
-----------------------------|----------------------------|
-----------------------------|----------------------------|
-----------------------------|----------------------------|
-------------------------2---|-------------------7--L-----|
--2--2--4-----5--------4-----|--2--2--4-----5----5--L-7---|
--0--0----0-0---0--3b--------|--0--0----0-0-----------5---|


              >                                            
  E  E  S S S S E  E   S E.     E  E  S S S S E  E  S E.   
-----------------------------|----------------------------|
-----------------------------|----------------------------|
-----------------------------|----------------------------|
-------------------------2---|-------------------7--L-----|
--2--2--4-----5--------4-----|--2--2--4-----5----5--L-7---|
--0--0----0-0---0--3b--------|--0--0----0-0-----------5---|


              >                                                              
  E  E  S S S S E  E   S E.     E  E  S S S S E  E  S E.     E.  S E  E  E   
-----------------------------|----------------------------|-----------------|
-----------------------------|----------------------------|-----------------|
-----------------------------|----------------------------|-----------------|
-------------------------2---|-------------------7--L-----|--7--------7-----|
--2--2--4-----5--------4-----|--2--2--4-----5----5--L-7---|--5---7-L--5--7--|
--0--0----0-0---0--3b--------|--0--0----0-0-----------5---|------5-L-----5--|


  E  E  S S E  S S E  S S E     S S E  S S E  E  E  S E.   
-----------------------------|----------------------------|
-----------------------------|----------------------------|
-----------------------------|----------------------------|
-----------------------------|-------------------7--L-----|
--2--2--x-2-2--x-2-2--x-2-2--|--x-2-2--x-2-2-----5--L-7---|
--0--0--x-0-0--x-0-0--x-0-0--|--x-0-0--x-0-0----------5---|


  E  E  S S E  S S E  S S E     S S E  S S E  E  E  S E.   
-----------------------------|----------------------------|
-----------------------------|----------------------------|
-----------------------------|----------------------------|
-----------------------------|-------------------7--L-----|
--2--2--x-2-2--x-2-2--x-2-2--|--x-2-2--x-2-2-----5--L-7---|
--0--0--x-0-0--x-0-0--x-0-0--|--x-0-0--x-0-0----------5---|


  E  E  S S E  S S E  S S E     S S E  S S E  E  E  S E.   
-----------------------------|----------------------------|
-----------------------------|----------------------------|
-----------------------------|----------------------------|
-----------------------------|-------------------7--L-----|
--2--2--x-2-2--x-2-2--x-2-2--|--x-2-2--x-2-2-----5--L-7---|
--0--0--x-0-0--x-0-0--x-0-0--|--x-0-0--x-0-0----------5---|


  E  E  S S E  S S E  S S E     S S E  S S E  E  E  S E.     E.  S E  E  E   
-----------------------------|----------------------------|-----------------|
-----------------------------|----------------------------|-----------------|
-----------------------------|----------------------------|-----------------|
-----------------------------|-------------------7--L-----|--7--------7-----|
--2--2--x-2-2--x-2-2--x-2-2--|--x-2-2--x-2-2-----5--L-7---|--5---7-L--5--7--|
--0--0--x-0-0--x-0-0--x-0-0--|--x-0-0--x-0-0----------5---|------5-L-----5--|


  W                   W                   W                 
-------------------|-------------------|-------------------|
-------------------|-------------------|-------------------|
-------------------|-------------------|-------------------|
-------------------|-------------------|-------------------|
--2----------------|--L----------------|--L----------------|
--0----------------|--L----------------|--L----------------|


        PM   PM PM   PM   PM                  PM   PM         PM          
  E  E  S  S S  S  S S  S S  S  S E     E  E  S  S S  S  E  S S  E   E    
-------------------------------------|-----------------------------------|
-------------------------------------|-----------------------------------|
----------------------------------2--|----------------2~-L---------------|
-----2-----4-------5----4---------2--|-----2-----4----------4------------|
--0-----0----0--0----0----0--3h-4----|--0-----0----0----------0--3b--3b--|
-------------------------------------|-----------------------------------|


        PM   PM PM   PM   PM                  PM   PM         PM          
  E  E  S  S S  S  S S  S S  S  S E     E  E  S  S S  S  E  S S  E   E    
-------------------------------------|-----------------------------------|
-------------------------------------|-----------------------------------|
----------------------------------2--|----------------2~-L---------------|
-----2-----4-------5----4---------2--|-----2-----4----------4------------|
--0-----0----0--0----0----0--3h-4----|--0-----0----0----------0--3b--3b--|
-------------------------------------|-----------------------------------|


        PM   PM PM   PM   PM                  PM   PM         PM          
  E  E  S  S S  S  S S  S S  S  S E     E  E  S  S S  S  E  S S  E   E    
-------------------------------------|-----------------------------------|
-------------------------------------|-----------------------------------|
----------------------------------2--|----------------2~-L---------------|
-----2-----4-------5----4---------2--|-----2-----4----------4------------|
--0-----0----0--0----0----0--3h-4----|--0-----0----0----------0--3b--3b--|
-------------------------------------|-----------------------------------|


        PM   PM PM   PM   PM                  PM   PM         PM          
  E  E  S  S S  S  S S  S S  S  S E     E  E  S  S S  S  E  S S  E   E    
-------------------------------------|-----------------------------------|
-------------------------------------|-----------------------------------|
----------------------------------2--|----------------2~-L---------------|
-----2-----4-------5----4---------2--|-----2-----4----------4----4b--4b--|
--0-----0----0--0----0----0--3h-4----|--0-----0----0----------0----------|
-------------------------------------|-----------------------------------|


        PM   PM                         PM   PM                    
  E  E  S  S E  E  S S S  S E     E  E  S  S S  S  E  S S E   E    
-------------------------------|----------------------------------|
----------------------------3--|----------------3~-L--------------|
-----2-----4----5--4-----------|-----2-----4----------4-----------|
--0-----0----0-------0-3p-0----|--0-----0----0----------0-3b--3b--|
-------------------------------|----------------------------------|
-------------------------------|----------------------------------|


        PM   PM PM   PM   PM                  PM   PM         PM          
  E  E  S  S S  S  S S  S S  S  S E     E  E  S  S S  S  E  S S  E   E    
-------------------------------------|-----------------------------------|
-------------------------------------|-----------------------------------|
----------------------------------2--|----------------2~-L---------------|
-----2-----4-------5----4---------2--|-----2-----4----------4------------|
--0-----0----0--0----0----0--3h-4----|--0-----0----0----------0--3b--3b--|
-------------------------------------|-----------------------------------|


  PM                                   PM   PM PM   PM   PM          
  E  E   S S E  E  E   S S E     E  E  S  S S  S  S S  S S  S  S E   
------------------------------|-------------------------------------|
------------------------------|-------------------------------------|
------------------------------|----------------------------------2--|
----------------7--7-----7-9--|-----2-----4-------5----4---------2--|
--5--5-----5-7--5--5--/9------|--0-----0----0--0----0----0--3h-4----|
--3--3--/7--------------------|-------------------------------------|


        PM   PM         PM            PM                           
  E  E  S  S S  S  E  S S  E   E      E  E   S S E  E  E   S S E   
-----------------------------------|------------------------------|
-----------------------------------|------------------------------|
----------------2~-L---------------|------------------------------|
-----2-----4----------4------------|----------------7--7-----7-9--|
--0-----0----0----------0--3b--3b--|--5--5-----5-7--5--5--/9------|
-----------------------------------|--3--3--/7--------------------|


        PM   PM PM   PM   PM                  PM   PM         PM          
  E  E  S  S S  S  S S  S S  S  S E     E  E  S  S S  S  E  S S  E   E    
-------------------------------------|-----------------------------------|
-------------------------------------|-----------------------------------|
----------------------------------2--|----------------2~-L---------------|
-----2-----4-------5----4---------2--|-----2-----4----------4------------|
--0-----0----0--0----0----0--3h-4----|--0-----0----0----------0--3b--3b--|
-------------------------------------|-----------------------------------|


  PM                                   PM   PM PM   PM   PM          
  E  E   S S E  E  E   S S E     E  E  S  S S  S  S S  S S  S  S E   
------------------------------|-------------------------------------|
------------------------------|-------------------------------------|
------------------------------|----------------------------------2--|
----------------7--7-----7-9--|-----2-----4-------5----4---------2--|
--5--5-----5-7--5--5--/9------|--0-----0----0--0----0----0--3h-4----|
--3--3--/7--------------------|-------------------------------------|


        PM   PM         PM            PM                           
  E  E  S  S S  S  E  S S  E   E      E  E   S S E  E  E   S S E   
-----------------------------------|------------------------------|
-----------------------------------|------------------------------|
----------------2~-L---------------|------------------------------|
-----2-----4----------4------------|----------------7--7-----7-9--|
--0-----0----0----------0--3b--3b--|--5--5-----5-7--5--5--/9------|
-----------------------------------|--3--3--/7--------------------|


        PM   PM PM   PM   PM                                        
  E  E  S  S S  S  S S  S S  S  S E     E  S S S S S  S E  E  Q     
-------------------------------------|-----------------------------|
-------------------------------------|-----------------------------|
----------------------------------2--|-----------------------------|
-----2-----4-------5----4---------2--|-----7-5-4-----------7--L----|
--0-----0----0--0----0----0--3h-4----|--0--------7-3h-4-0--5--L----|
-------------------------------------|-----------------------------|


  H        S S S S S S S S     S S S  S Q    H          
----------------------------|-------------------------||
----------------------------|-------------------------||
----------------------------|-------------------------||
--L--------7-5-4---5-4------|----2------2-------------||
--L--------------7-----7-3b-|--L---3h-4-0-------------||
----------------------------|-------------------------||










Rhythm - center
This is revision #1 (May 23, 2008).



     W                   W                   W                 
E||-------------------|-------------------|-------------------|
B||-------------------|-------------------|-------------------|
G||-------------------|-------------------|-------------------|
D||-------------------|-------------------|-------------------|
A||-------------------|-------------------|-------------------|
E||-------------------|-------------------|-------------------|


  W                   W                   W                   W                 
-------------------|-------------------|-------------------|-------------------|
-------------------|-------------------|-------------------|-------------------|
-------------------|-------------------|-------------------|-------------------|
-------------------|-------------------|-------------------|-------------------|
-------------------|-------------------|-------------------|-------------------|
-------------------|-------------------|-------------------|-------------------|


        PM   PM PM   PM   PM                  PM   PM         PM          
  E  E  S  S S  S  S S  S S  S  S E     E  E  S  S S  S  E  S S  E   E    
-------------------------------------|-----------------------------------|
-------------------------------------|-----------------------------------|
----------------------------------2--|----------------2~-L---------------|
-----2-----4-------5----4---------2--|-----2-----4----------4------------|
--0-----0----0--0----0----0--3h-4----|--0-----0----0----------0--3b--3b--|
-------------------------------------|-----------------------------------|


        PM   PM PM   PM   PM                  PM   PM         PM          
  E  E  S  S S  S  S S  S S  S  S E     E  E  S  S S  S  E  S S  E   E    
-------------------------------------|-----------------------------------|
-------------------------------------|-----------------------------------|
----------------------------------2--|----------------2~-L---------------|
-----2-----4-------5----4---------2--|-----2-----4----------4------------|
--0-----0----0--0----0----0--3h-4----|--0-----0----0----------0--3b--3b--|
-------------------------------------|-----------------------------------|


        PM   PM PM   PM   PM                  PM   PM         PM          
  E  E  S  S S  S  S S  S S  S  S E     E  E  S  S S  S  E  S S  E   E    
-------------------------------------|-----------------------------------|
-------------------------------------|-----------------------------------|
----------------------------------2--|----------------2~-L---------------|
-----2-----4-------5----4---------2--|-----2-----4----------4------------|
--0-----0----0--0----0----0--3h-4----|--0-----0----0----------0--3b--3b--|
-------------------------------------|-----------------------------------|


        PM   PM PM   PM   PM                  PM   PM         PM          
  E  E  S  S S  S  S S  S S  S  S E     E  E  S  S S  S  E  S S  E   E    
-------------------------------------|-----------------------------------|
-------------------------------------|-----------------------------------|
----------------------------------2--|----------------2~-L---------------|
-----2-----4-------5----4---------2--|-----2-----4----------4------------|
--0-----0----0--0----0----0--3h-4----|--0-----0----0----------0--3b--3b--|
-------------------------------------|-----------------------------------|


        PM   PM PM   PM   PM                  PM   PM         PM          
  E  E  S  S S  S  S S  S S  S  S E     E  E  S  S S  S  E  S S  E   E    
-------------------------------------|-----------------------------------|
-------------------------------------|-----------------------------------|
----------------------------------2--|----------------2~-L---------------|
-----2-----4-------5----4---------2--|-----2-----4----------4------------|
--0-----0----0--0----0----0--3h-4----|--0-----0----0----------0--3b--3b--|
-------------------------------------|-----------------------------------|


        PM   PM PM   PM   PM                  PM   PM         PM          
  E  E  S  S S  S  S S  S S  S  S E     E  E  S  S S  S  E  S S  E   E    
-------------------------------------|-----------------------------------|
-------------------------------------|-----------------------------------|
----------------------------------2--|----------------2~-L---------------|
-----2-----4-------5----4---------2--|-----2-----4----------4------------|
--0-----0----0--0----0----0--3h-4----|--0-----0----0----------0--3b--3b--|
-------------------------------------|-----------------------------------|


        PM   PM PM   PM   PM                  PM   PM         PM          
  E  E  S  S S  S  S S  S S  S  S E     E  E  S  S S  S  E  S S  E   E    
-------------------------------------|-----------------------------------|
-------------------------------------|-----------------------------------|
----------------------------------2--|----------------2~-L---------------|
-----2-----4-------5----4---------2--|-----2-----4----------4------------|
--0-----0----0--0----0----0--3h-4----|--0-----0----0----------0--3b--3b--|
-------------------------------------|-----------------------------------|


        PM   PM PM   PM   PM                  PM   PM        PM          
  E  E  S  S S  S  S S  S S  S  S E     E  E  S  S S  S E  S S  E  S  S  
-------------------------------------|----------------------------------|
-------------------------------------|----------------------------------|
----------------------------------2--|----------------2-L---------------|
-----2-----4-------5----4---------2--|-----2-----4---------4------------|
--0-----0----0--0----0----0--3h-4----|--0-----0----0---------0--3--3p-0-|
-------------------------------------|----------------------------------|


  PM                                   PM   PM PM   PM   PM          
  E  E   S S E  E  E   S S E     E  E  S  S S  S  S S  S S  S  S E   
------------------------------|-------------------------------------|
------------------------------|-------------------------------------|
------------------------------|----------------------------------2--|
----------------7--7-----7-9--|-----2-----4-------5----4---------2--|
--5--5-----5-7--5--5--/9------|--0-----0----0--0----0----0--3h-4----|
--3--3--/7--------------------|-------------------------------------|


        PM   PM         PM            PM                           
  E  E  S  S S  S  E  S S  E   E      E  E   S S E  E  E   S S E   
-----------------------------------|------------------------------|
-----------------------------------|------------------------------|
----------------2~-L---------------|------------------------------|
-----2-----4----------4------------|----------------7--7-----7-9--|
--0-----0----0----------0--3b--3b--|--5--5-----5-7--5--5--/9------|
-----------------------------------|--3--3--/7--------------------|


        PM   PM PM   PM   PM                                        
  E  E  S  S S  S  S S  S S  S  S E     E  S S S S S  S E  E  Q     
-------------------------------------|-----------------------------|
-------------------------------------|-----------------------------|
----------------------------------2--|-----------------------------|
-----2-----4-------5----4---------2--|-----7-5-4-----------7--L----|
--0-----0----0--0----0----0--3h-4----|--0--------7-3h-4-0--5--L----|
-------------------------------------|-----------------------------|


        PM   PM PM   PM   PM                  PM   PM         PM          
  E  E  S  S S  S  S S  S S  S  S E     E  E  S  S S  S  E  S S  E   E    
-------------------------------------|-----------------------------------|
-------------------------------------|-----------------------------------|
----------------------------------2--|----------------2~-L---------------|
-----2-----4-------5----4---------2--|-----2-----4----------4------------|
--0-----0----0--0----0----0--3h-4----|--0-----0----0----------0--3b--3b--|
-------------------------------------|-----------------------------------|


        PM   PM PM   PM   PM                  PM   PM         PM          
  E  E  S  S S  S  S S  S S  S  S E     E  E  S  S S  S  E  S S  E   E    
-------------------------------------|-----------------------------------|
-------------------------------------|-----------------------------------|
----------------------------------2--|----------------2~-L---------------|
-----2-----4-------5----4---------2--|-----2-----4----------4------------|
--0-----0----0--0----0----0--3h-4----|--0-----0----0----------0--3b--3b--|
-------------------------------------|-----------------------------------|


        PM   PM                         PM   PM                    
  E  E  S  S E  E  S S S  S E     E  E  S  S S  S  E  S S E   E    
-------------------------------|----------------------------------|
----------------------------3--|----------------3~-L--------------|
-----2-----4----5--4-----------|-----2-----4----------4-----------|
--0-----0----0-------0-3p-0----|--0-----0----0----------0-3b--3b--|
-------------------------------|----------------------------------|
-------------------------------|----------------------------------|


        PM   PM PM   PM   PM                  PM   PM        PM          
  E  E  S  S S  S  S S  S S  S  S E     E  E  S  S S  S E  S S  E  S  S  
-------------------------------------|----------------------------------|
-------------------------------------|----------------------------------|
----------------------------------2--|----------------2-L---------------|
-----2-----4-------5----4---------2--|-----2-----4---------4------------|
--0-----0----0--0----0----0--3h-4----|--0-----0----0---------0--3--3p-0-|
-------------------------------------|----------------------------------|


  PM                                   PM   PM PM   PM   PM          
  E  E   S S E  E  E   S S E     E  E  S  S S  S  S S  S S  S  S E   
------------------------------|-------------------------------------|
------------------------------|-------------------------------------|
------------------------------|----------------------------------2--|
----------------7--7-----7-9--|-----2-----4-------5----4---------2--|
--5--5-----5-7--5--5--/9------|--0-----0----0--0----0----0--3h-4----|
--3--3--/7--------------------|-------------------------------------|


        PM   PM         PM            PM                           
  E  E  S  S S  S  E  S S  E   E      E  E   S S E  E  E   S S E   
-----------------------------------|------------------------------|
-----------------------------------|------------------------------|
----------------2~-L---------------|------------------------------|
-----2-----4----------4------------|----------------7--7-----7-9--|
--0-----0----0----------0--3b--3b--|--5--5-----5-7--5--5--/9------|
-----------------------------------|--3--3--/7--------------------|


        PM   PM PM   PM   PM                                         
  E  E  S  S S  S  S S  S S  S  S E     E  S S S S S  S E  E  S E.   
-------------------------------------|------------------------------|
-------------------------------------|------------------------------|
----------------------------------2--|------------------------------|
-----2-----4-------5----4---------2--|-----7-5-4-----------7--L-----|
--0-----0----0--0----0----0--3h-4----|--0--------7-3h-4-0--5--L-7---|
-------------------------------------|--------------------------5---|


                             >                                            
  E.  S E  E     E  E  S S S S E  E   S E.     E  E  S S S S E  E  S E.   
--------------|-----------------------------|----------------------------|
--------------|-----------------------------|----------------------------|
--------------|-----------------------------|----------------------------|
--7--------7--|-------------------------2---|-------------------7--L-----|
--5---7-L--5--|--2--2--4-----5--------4-----|--2--2--4-----5----5--L-7---|
------5-L-----|--0--0----0-0---0--3b--------|--0--0----0-0-----------5---|


              >                                            
  E  E  S S S S E  E   S E.     E  E  S S S S E  E  S E.   
-----------------------------|----------------------------|
-----------------------------|----------------------------|
-----------------------------|----------------------------|
-------------------------2---|-------------------7--L-----|
--2--2--4-----5--------4-----|--2--2--4-----5----5--L-7---|
--0--0----0-0---0--3b--------|--0--0----0-0-----------5---|


              >                                            
  E  E  S S S S E  E   S E.     E  E  S S S S E  E  S E.   
-----------------------------|----------------------------|
-----------------------------|----------------------------|
-----------------------------|----------------------------|
-------------------------2---|-------------------7--L-----|
--2--2--4-----5--------4-----|--2--2--4-----5----5--L-7---|
--0--0----0-0---0--3b--------|--0--0----0-0-----------5---|


              >                                                              
  E  E  S S S S E  E   S E.     E  E  S S S S E  E  S E.     E.  S E  E  E   
-----------------------------|----------------------------|-----------------|
-----------------------------|----------------------------|-----------------|
-----------------------------|----------------------------|-----------------|
-------------------------2---|-------------------7--L-----|--7--------7-----|
--2--2--4-----5--------4-----|--2--2--4-----5----5--L-7---|--5---7-L--5--7--|
--0--0----0-0---0--3b--------|--0--0----0-0-----------5---|------5-L-----5--|


  E  E  S S E  S S E  S S E     S S E  S S E  E  E  S E.   
-----------------------------|----------------------------|
-----------------------------|----------------------------|
-----------------------------|----------------------------|
-----------------------------|-------------------7--L-----|
--2--2--x-2-2--x-2-2--x-2-2--|--x-2-2--x-2-2-----5--L-7---|
--0--0--x-0-0--x-0-0--x-0-0--|--x-0-0--x-0-0----------5---|


  E  E  S S E  S S E  S S E     S S E  S S E  E  E  S E.   
-----------------------------|----------------------------|
-----------------------------|----------------------------|
-----------------------------|----------------------------|
-----------------------------|-------------------7--L-----|
--2--2--x-2-2--x-2-2--x-2-2--|--x-2-2--x-2-2-----5--L-7---|
--0--0--x-0-0--x-0-0--x-0-0--|--x-0-0--x-0-0----------5---|


  E  E  S S E  S S E  S S E     S S E  S S E  E  E  S E.   
-----------------------------|----------------------------|
-----------------------------|----------------------------|
-----------------------------|----------------------------|
-----------------------------|-------------------7--L-----|
--2--2--x-2-2--x-2-2--x-2-2--|--x-2-2--x-2-2-----5--L-7---|
--0--0--x-0-0--x-0-0--x-0-0--|--x-0-0--x-0-0----------5---|


  E  E  S S E  S S E  S S E     S S E  S S E  E  E  S E.     E.  S E  E  E   
-----------------------------|----------------------------|-----------------|
-----------------------------|----------------------------|-----------------|
-----------------------------|----------------------------|-----------------|
-----------------------------|-------------------7--L-----|--7--------7-----|
--2--2--x-2-2--x-2-2--x-2-2--|--x-2-2--x-2-2-----5--L-7---|--5---7-L--5--7--|
--0--0--x-0-0--x-0-0--x-0-0--|--x-0-0--x-0-0----------5---|------5-L-----5--|


  W                   W                   W                 
-------------------|-------------------|-------------------|
-------------------|-------------------|-------------------|
-------------------|-------------------|-------------------|
-------------------|-------------------|-------------------|
--2----------------|--L----------------|--L----------------|
--0----------------|--L----------------|--L----------------|


        PM   PM PM   PM   PM                  PM   PM         PM          
  E  E  S  S S  S  S S  S S  S  S E     E  E  S  S S  S  E  S S  E   E    
-------------------------------------|-----------------------------------|
-------------------------------------|-----------------------------------|
----------------------------------2--|----------------2~-L---------------|
-----2-----4-------5----4---------2--|-----2-----4----------4------------|
--0-----0----0--0----0----0--3h-4----|--0-----0----0----------0--3b--3b--|
-------------------------------------|-----------------------------------|


        PM   PM PM   PM   PM                  PM   PM         PM          
  E  E  S  S S  S  S S  S S  S  S E     E  E  S  S S  S  E  S S  E   E    
-------------------------------------|-----------------------------------|
-------------------------------------|-----------------------------------|
----------------------------------2--|----------------2~-L---------------|
-----2-----4-------5----4---------2--|-----2-----4----------4------------|
--0-----0----0--0----0----0--3h-4----|--0-----0----0----------0--3b--3b--|
-------------------------------------|-----------------------------------|


        PM   PM PM   PM   PM                  PM   PM         PM          
  E  E  S  S S  S  S S  S S  S  S E     E  E  S  S S  S  E  S S  E   E    
-------------------------------------|-----------------------------------|
-------------------------------------|-----------------------------------|
----------------------------------2--|----------------2~-L---------------|
-----2-----4-------5----4---------2--|-----2-----4----------4------------|
--0-----0----0--0----0----0--3h-4----|--0-----0----0----------0--3b--3b--|
-------------------------------------|-----------------------------------|


        PM   PM PM   PM   PM                  PM   PM        PM          
  E  E  S  S S  S  S S  S S  S  S E     E  E  S  S S  S E  S S  E  S  S  
-------------------------------------|----------------------------------|
-------------------------------------|----------------------------------|
----------------------------------2--|----------------2-L---------------|
-----2-----4-------5----4---------2--|-----2-----4---------4------------|
--0-----0----0--0----0----0--3h-4----|--0-----0----0---------0--3--3p-0-|
-------------------------------------|----------------------------------|


        PM   PM                         PM   PM                    
  E  E  S  S E  E  S S S  S E     E  E  S  S S  S  E  S S E   E    
-------------------------------|----------------------------------|
----------------------------3--|----------------3~-L--------------|
-----2-----4----5--4-----------|-----2-----4----------4-----------|
--0-----0----0-------0-3p-0----|--0-----0----0----------0-3b--3b--|
-------------------------------|----------------------------------|
-------------------------------|----------------------------------|


        PM   PM PM   PM   PM                  PM   PM         PM          
  E  E  S  S S  S  S S  S S  S  S E     E  E  S  S S  S  E  S S  E   E    
-------------------------------------|-----------------------------------|
-------------------------------------|-----------------------------------|
----------------------------------2--|----------------2~-L---------------|
-----2-----4-------5----4---------2--|-----2-----4----------4------------|
--0-----0----0--0----0----0--3h-4----|--0-----0----0----------0--3b--3b--|
-------------------------------------|-----------------------------------|


  PM                                   PM   PM PM   PM   PM          
  E  E   S S E  E  E   S S E     E  E  S  S S  S  S S  S S  S  S E   
------------------------------|-------------------------------------|
------------------------------|-------------------------------------|
------------------------------|----------------------------------2--|
----------------7--7-----7-9--|-----2-----4-------5----4---------2--|
--5--5-----5-7--5--5--/9------|--0-----0----0--0----0----0--3h-4----|
--3--3--/7--------------------|-------------------------------------|


        PM   PM         PM            PM                           
  E  E  S  S S  S  E  S S  E   E      E  E   S S E  E  E   S S E   
-----------------------------------|------------------------------|
-----------------------------------|------------------------------|
----------------2~-L---------------|------------------------------|
-----2-----4----------4------------|----------------7--7-----7-9--|
--0-----0----0----------0--3b--3b--|--5--5-----5-7--5--5--/9------|
-----------------------------------|--3--3--/7--------------------|


        PM   PM PM   PM   PM                  PM   PM         PM          
  E  E  S  S S  S  S S  S S  S  S E     E  E  S  S S  S  E  S S  E   E    
-------------------------------------|-----------------------------------|
-------------------------------------|-----------------------------------|
----------------------------------2--|----------------2~-L---------------|
-----2-----4-------5----4---------2--|-----2-----4----------4------------|
--0-----0----0--0----0----0--3h-4----|--0-----0----0----------0--3b--3b--|
-------------------------------------|-----------------------------------|


  PM                                   PM   PM PM   PM   PM          
  E  E   S S E  E  E   S S E     E  E  S  S S  S  S S  S S  S  S E   
------------------------------|-------------------------------------|
------------------------------|-------------------------------------|
------------------------------|----------------------------------2--|
----------------7--7-----7-9--|-----2-----4-------5----4---------2--|
--5--5-----5-7--5--5--/9------|--0-----0----0--0----0----0--3h-4----|
--3--3--/7--------------------|-------------------------------------|


        PM   PM         PM            PM                           
  E  E  S  S S  S  E  S S  E   E      E  E   S S E  E  E   S S E   
-----------------------------------|------------------------------|
-----------------------------------|------------------------------|
----------------2~-L---------------|------------------------------|
-----2-----4----------4------------|----------------7--7-----7-9--|
--0-----0----0----------0--3b--3b--|--5--5-----5-7--5--5--/9------|
-----------------------------------|--3--3--/7--------------------|


        PM   PM PM   PM   PM                                        
  E  E  S  S S  S  S S  S S  S  S E     E  S S S S S  S E  E  Q     
-------------------------------------|-----------------------------|
-------------------------------------|-----------------------------|
----------------------------------2--|-----------------------------|
-----2-----4-------5----4---------2--|-----7-5-4-----------7--L----|
--0-----0----0--0----0----0--3h-4----|--0--------7-3h-4-0--5--L----|
-------------------------------------|-----------------------------|


  H        S S S S S S S S     S S S  S Q    H          
----------------------------|-------------------------||
----------------------------|-------------------------||
----------------------------|-------------------------||
--L--------7-5-4---5-4------|----2------2-------------||
--L--------------7-----7-3b-|--L---3h-4-0-------------||
----------------------------|-------------------------||










Rhythm - right
This is revision #1 (May 23, 2008).



     W                   W                   W                 
E||-------------------|-------------------|-------------------|
B||-------------------|-------------------|-------------------|
G||-------------------|-------------------|-------------------|
D||-------------------|-------------------|-------------------|
A||-------------------|-------------------|-------------------|
E||-------------------|-------------------|-------------------|


  W                   W                   W                   W                 
-------------------|-------------------|-------------------|-------------------|
-------------------|-------------------|-------------------|-------------------|
-------------------|-------------------|-------------------|-------------------|
-------------------|-------------------|-------------------|-------------------|
-------------------|-------------------|-------------------|-------------------|
-------------------|-------------------|-------------------|-------------------|


        PM   PM PM   PM   PM                  PM   PM         PM          
  E  E  S  S S  S  S S  S S  S  S E     E  E  S  S S  S  E  S S  E   E    
-------------------------------------|-----------------------------------|
-------------------------------------|-----------------------------------|
----------------------------------2--|----------------2~-L---------------|
-----2-----4-------5----4---------2--|-----2-----4----------4------------|
--0-----0----0--0----0----0--3h-4----|--0-----0----0----------0--3b--3b--|
-------------------------------------|-----------------------------------|


        PM   PM PM   PM   PM                  PM   PM         PM          
  E  E  S  S S  S  S S  S S  S  S E     E  E  S  S S  S  E  S S  E   E    
-------------------------------------|-----------------------------------|
-------------------------------------|-----------------------------------|
----------------------------------2--|----------------2~-L---------------|
-----2-----4-------5----4---------2--|-----2-----4----------4------------|
--0-----0----0--0----0----0--3h-4----|--0-----0----0----------0--3b--3b--|
-------------------------------------|-----------------------------------|


        PM   PM PM   PM   PM                  PM   PM         PM          
  E  E  S  S S  S  S S  S S  S  S E     E  E  S  S S  S  E  S S  E   E    
-------------------------------------|-----------------------------------|
-------------------------------------|-----------------------------------|
----------------------------------2--|----------------2~-L---------------|
-----2-----4-------5----4---------2--|-----2-----4----------4------------|
--0-----0----0--0----0----0--3h-4----|--0-----0----0----------0--3b--3b--|
-------------------------------------|-----------------------------------|


        PM   PM PM   PM   PM                  PM   PM         PM          
  E  E  S  S S  S  S S  S S  S  S E     E  E  S  S S  S  E  S S  E   E    
-------------------------------------|-----------------------------------|
-------------------------------------|----------------2~-L---------------|
----------------------------------2--|----------------------4------------|
-----2-----4-------5----4---------2--|-----2-----4-----------------------|
--0-----0----0--0----0----0--3h-4----|--0-----0----0----------0--3b--3b--|
-------------------------------------|-----------------------------------|


        PM   PM PM   PM   PM                  PM   PM         PM          
  E  E  S  S S  S  S S  S S  S  S E     E  E  S  S S  S  E  S S  E   E    
-------------------------------------|-----------------------------------|
-------------------------------------|-----------------------------------|
----------------------------------2--|----------------2~-L---------------|
-----2-----4-------5----4---------2--|-----2-----4----------4------------|
--0-----0----0--0----0----0--3h-4----|--0-----0----0----------0--3b--3b--|
-------------------------------------|-----------------------------------|


        PM   PM PM   PM   PM                  PM   PM         PM          
  E  E  S  S S  S  S S  S S  S  S E     E  E  S  S S  S  E  S S  E   E    
-------------------------------------|-----------------------------------|
-------------------------------------|----------------2~-L---------------|
----------------------------------2--|----------------------4----4b--4b--|
-----2-----4-------5----4---------2--|-----2-----4-----------------------|
--0-----0----0--0----0----0--3h-4----|--0-----0----0----------0----------|
-------------------------------------|-----------------------------------|


        PM   PM PM   PM   PM                  PM   PM         PM          
  E  E  S  S S  S  S S  S S  S  S E     E  E  S  S S  S  E  S S  E   E    
-------------------------------------|-----------------------------------|
-------------------------------------|-----------------------------------|
----------------------------------2--|----------------2~-L---------------|
-----2-----4-------5----4---------2--|-----2-----4----------4------------|
--0-----0----0--0----0----0--3h-4----|--0-----0----0----------0--3b--3b--|
-------------------------------------|-----------------------------------|


        PM   PM PM   PM   PM                  PM   PM         PM          
  E  E  S  S S  S  S S  S S  S  S E     E  E  S  S S  S  E  S S  E   E    
-------------------------------------|-----------------------------------|
-------------------------------------|----------------2~-L---------------|
----------------------------------2--|----------------------4----4b--4b--|
-----2-----4-------5----4---------2--|-----2-----4-----------------------|
--0-----0----0--0----0----0--3h-4----|--0-----0----0----------0----------|
-------------------------------------|-----------------------------------|


  PM                                   PM   PM PM   PM   PM          
  E  E   S S E  E  E   S S E     E  E  S  S S  S  S S  S S  S  S E   
------------------------------|-------------------------------------|
------------------------------|-------------------------------------|
------------------------------|----------------------------------2--|
----------------7--7-----7-9--|-----2-----4-------5----4---------2--|
--5--5-----5-7--5--5--/9------|--0-----0----0--0----0----0--3h-4----|
--3--3--/7--------------------|-------------------------------------|


        PM   PM         PM            PM                           
  E  E  S  S S  S  E  S S  E   E      E  E   S S E  E  E   S S E   
-----------------------------------|------------------------------|
-----------------------------------|------------------------------|
----------------2~-L---------------|------------------------------|
-----2-----4----------4------------|----------------7--7-----7-9--|
--0-----0----0----------0--3b--3b--|--5--5-----5-7--5--5--/9------|
-----------------------------------|--3--3--/7--------------------|


        PM   PM PM   PM   PM                                        
  E  E  S  S S  S  S S  S S  S  S E     E  S S S S S  S E  E  Q     
-------------------------------------|-----------------------------|
-------------------------------------|-----------------------------|
----------------------------------2--|-----------------------------|
-----2-----4-------5----4---------2--|-----7-5-4-----------7--L----|
--0-----0----0--0----0----0--3h-4----|--0--------7-3h-4-0--5--L----|
-------------------------------------|-----------------------------|


        PM   PM PM   PM   PM                  PM   PM         PM          
  E  E  S  S S  S  S S  S S  S  S E     E  E  S  S S  S  E  S S  E   E    
-------------------------------------|-----------------------------------|
-------------------------------------|-----------------------------------|
----------------------------------2--|----------------2~-L---------------|
-----2-----4-------5----4---------2--|-----2-----4----------4------------|
--0-----0----0--0----0----0--3h-4----|--0-----0----0----------0--3b--3b--|
-------------------------------------|-----------------------------------|


        PM   PM PM   PM   PM                  PM   PM         PM          
  E  E  S  S S  S  S S  S S  S  S E     E  E  S  S S  S  E  S S  E   E    
-------------------------------------|-----------------------------------|
-------------------------------------|----------------2~-L---------------|
----------------------------------2--|----------------------4----4b--4b--|
-----2-----4-------5----4---------2--|-----2-----4-----------------------|
--0-----0----0--0----0----0--3h-4----|--0-----0----0----------0----------|
-------------------------------------|-----------------------------------|


        PM   PM                         PM   PM                    
  E  E  S  S E  E  S S S  S E     E  E  S  S S  S E  S  S E   E    
-------------------------------|----------------2-L---------------|
----------------------------3--|---------------------5p-3---------|
-----2-----4----5--4-----------|-----2-----4--------------4b--4b--|
--0-----0----0-------0-3p-0----|--0-----0----0--------------------|
-------------------------------|----------------------------------|
-------------------------------|----------------------------------|


        PM   PM PM   PM   PM                  PM   PM        PM          
  E  E  S  S S  S  S S  S S  S  S E     E  E  S  S S  S E  S S  E  S  S  
-------------------------------------|----------------------------------|
-------------------------------------|----------------------------------|
----------------------------------2--|----------------2-L---------------|
-----2-----4-------5----4---------2--|-----2-----4---------4------------|
--0-----0----0--0----0----0--3h-4----|--0-----0----0---------0--3--3p-0-|
-------------------------------------|----------------------------------|


  PM                                   PM   PM PM   PM   PM          
  E  E   S S E  E  E   S S E     E  E  S  S S  S  S S  S S  S  S E   
------------------------------|-------------------------------------|
------------------------------|-------------------------------------|
------------------------------|----------------------------------2--|
----------------7--7-----7-9--|-----2-----4-------5----4---------2--|
--5--5-----5-7--5--5--/9------|--0-----0----0--0----0----0--3h-4----|
--3--3--/7--------------------|-------------------------------------|


        PM   PM         PM            PM                           
  E  E  S  S S  S  E  S S  E   E      E  E   S S E  E  E   S S E   
-----------------------------------|------------------------------|
-----------------------------------|------------------------------|
----------------2~-L---------------|------------------------------|
-----2-----4----------4------------|----------------7--7-----7-9--|
--0-----0----0----------0--3b--3b--|--5--5-----5-7--5--5--/9------|
-----------------------------------|--3--3--/7--------------------|


        PM   PM PM   PM   PM                                         
  E  E  S  S S  S  S S  S S  S  S E     E  S S S S S  S E  E  S E.   
-------------------------------------|------------------------------|
-------------------------------------|------------------------------|
----------------------------------2--|------------------------------|
-----2-----4-------5----4---------2--|-----7-5-4-----------7--L-----|
--0-----0----0--0----0----0--3h-4----|--0--------7-3h-4-0--5--L-7---|
-------------------------------------|--------------------------5---|


                             >                                            
  E.  S E  E     E  E  S S S S E  E   S E.     E  E  S S S S E  E  S E.   
--------------|-----------------------------|----------------------------|
--------------|-----------------------------|----------------------------|
--------------|-----------------------------|----------------------------|
--7--------7--|-------------------------2---|-------------------7--L-----|
--5---7-L--5--|--2--2--4-----5--------4-----|--2--2--4-----5----5--L-7---|
------5-L-----|--0--0----0-0---0--3b--------|--0--0----0-0-----------5---|


              >                                            
  E  E  S S S S E  E   S E.     E  E  S S S S E  E  S E.   
-----------------------------|----------------------------|
-----------------------------|----------------------------|
-----------------------------|----------------------------|
-------------------------2---|-------------------7--L-----|
--2--2--4-----5--------4-----|--2--2--4-----5----5--L-7---|
--0--0----0-0---0--3b--------|--0--0----0-0-----------5---|


              >                                            
  E  E  S S S S E  E   S E.     E  E  S S S S E  E  S E.   
-----------------------------|----------------------------|
-----------------------------|----------------------------|
-----------------------------|----------------------------|
-------------------------2---|-------------------7--L-----|
--2--2--4-----5--------4-----|--2--2--4-----5----5--L-7---|
--0--0----0-0---0--3b--------|--0--0----0-0-----------5---|


              >                                                              
  E  E  S S S S E  E   S E.     E  E  S S S S E  E  S E.     E.  S E  E  E   
-----------------------------|----------------------------|-----------------|
-----------------------------|----------------------------|-----------------|
-----------------------------|----------------------------|-----------------|
-------------------------2---|-------------------7--L-----|--7--------7-----|
--2--2--4-----5--------4-----|--2--2--4-----5----5--L-7---|--5---7-L--5--7--|
--0--0----0-0---0--3b--------|--0--0----0-0-----------5---|------5-L-----5--|


  E  E  S S E  S S E  S S E     S S E  S S E  E  E  S E.   
-----------------------------|----------------------------|
-----------------------------|----------------------------|
-----------------------------|----------------------------|
-----------------------------|-------------------7--L-----|
--2--2--x-2-2--x-2-2--x-2-2--|--x-2-2--x-2-2-----5--L-7---|
--0--0--x-0-0--x-0-0--x-0-0--|--x-0-0--x-0-0----------5---|


  E  E  S S E  S S E  S S E     S S E  S S E  E  E  S E.   
-----------------------------|----------------------------|
-----------------------------|----------------------------|
-----------------------------|----------------------------|
-----------------------------|-------------------7--L-----|
--2--2--x-2-2--x-2-2--x-2-2--|--x-2-2--x-2-2-----5--L-7---|
--0--0--x-0-0--x-0-0--x-0-0--|--x-0-0--x-0-0----------5---|


  E  E  S S E  S S E  S S E     S S E  S S E  E  E  S E.   
-----------------------------|----------------------------|
-----------------------------|----------------------------|
-----------------------------|----------------------------|
-----------------------------|-------------------7--L-----|
--2--2--x-2-2--x-2-2--x-2-2--|--x-2-2--x-2-2-----5--L-7---|
--0--0--x-0-0--x-0-0--x-0-0--|--x-0-0--x-0-0----------5---|


  E  E  S S E  S S E  S S E     S S E  S S E  E  E  S E.     E.  S E  E  E   
-----------------------------|----------------------------|-----------------|
-----------------------------|----------------------------|-----------------|
-----------------------------|----------------------------|-----------------|
-----------------------------|-------------------7--L-----|--7--------7-----|
--2--2--x-2-2--x-2-2--x-2-2--|--x-2-2--x-2-2-----5--L-7---|--5---7-L--5--7--|
--0--0--x-0-0--x-0-0--x-0-0--|--x-0-0--x-0-0----------5---|------5-L-----5--|


  W                   W                   W                 
-------------------|-------------------|-------------------|
-------------------|-------------------|-------------------|
-------------------|-------------------|-------------------|
-------------------|-------------------|-------------------|
--2----------------|--L----------------|--L----------------|
--0----------------|--L----------------|--L----------------|


        PM   PM PM   PM   PM                  PM   PM         PM          
  E  E  S  S S  S  S S  S S  S  S E     E  E  S  S S  S  E  S S  E   E    
-------------------------------------|-----------------------------------|
-------------------------------------|-----------------------------------|
----------------------------------2--|----------------2~-L---------------|
-----2-----4-------5----4---------2--|-----2-----4----------4------------|
--0-----0----0--0----0----0--3h-4----|--0-----0----0----------0--3b--3b--|
-------------------------------------|-----------------------------------|


        PM   PM PM   PM   PM                  PM   PM         PM          
  E  E  S  S S  S  S S  S S  S  S E     E  E  S  S S  S  E  S S  E   E    
-------------------------------------|-----------------------------------|
-------------------------------------|-----------------------------------|
----------------------------------2--|----------------2~-L---------------|
-----2-----4-------5----4---------2--|-----2-----4----------4------------|
--0-----0----0--0----0----0--3h-4----|--0-----0----0----------0--3b--3b--|
-------------------------------------|-----------------------------------|


        PM   PM PM   PM   PM                  PM   PM         PM          
  E  E  S  S S  S  S S  S S  S  S E     E  E  S  S S  S  E  S S  E   E    
-------------------------------------|-----------------------------------|
-------------------------------------|-----------------------------------|
----------------------------------2--|----------------2~-L---------------|
-----2-----4-------5----4---------2--|-----2-----4----------4------------|
--0-----0----0--0----0----0--3h-4----|--0-----0----0----------0--3b--3b--|
-------------------------------------|-----------------------------------|


        PM   PM PM   PM   PM                  PM   PM         PM          
  E  E  S  S S  S  S S  S S  S  S E     E  E  S  S S  S  E  S S  E   E    
-------------------------------------|-----------------------------------|
-------------------------------------|----------------2~-L---------------|
----------------------------------2--|----------------------4------------|
-----2-----4-------5----4---------2--|-----2-----4-----------------------|
--0-----0----0--0----0----0--3h-4----|--0-----0----0----------0--3b--3b--|
-------------------------------------|-----------------------------------|


        PM   PM                         PM   PM                    
  E  E  S  S E  E  S S S  S E     E  E  S  S S  S E  S  S E   E    
-------------------------------|----------------2-2---------------|
----------------------------3--|---------------------5p-3---------|
-----2-----4----5--4-----------|-----2-----4--------------4b--4b--|
--0-----0----0-------0-3p-0----|--0-----0----0--------------------|
-------------------------------|----------------------------------|
-------------------------------|----------------------------------|


        PM   PM PM   PM   PM                  PM   PM         PM          
  E  E  S  S S  S  S S  S S  S  S E     E  E  S  S S  S  E  S S  E   E    
-------------------------------------|-----------------------------------|
-------------------------------------|-----------------------------------|
----------------------------------2--|----------------2~-L---------------|
-----2-----4-------5----4---------2--|-----2-----4----------4------------|
--0-----0----0--0----0----0--3h-4----|--0-----0----0----------0--3b--3b--|
-------------------------------------|-----------------------------------|


  PM                                   PM   PM PM   PM   PM          
  E  E   S S E  E  E   S S E     E  E  S  S S  S  S S  S S  S  S E   
------------------------------|-------------------------------------|
------------------------------|-------------------------------------|
------------------------------|----------------------------------2--|
----------------7--7-----7-9--|-----2-----4-------5----4---------2--|
--5--5-----5-7--5--5--/9------|--0-----0----0--0----0----0--3h-4----|
--3--3--/7--------------------|-------------------------------------|


        PM   PM         PM            PM                           
  E  E  S  S S  S  E  S S  E   E      E  E   S S E  E  E   S S E   
-----------------------------------|------------------------------|
-----------------------------------|------------------------------|
----------------2~-L---------------|------------------------------|
-----2-----4----------4------------|----------------7--7-----7-9--|
--0-----0----0----------0--3b--3b--|--5--5-----5-7--5--5--/9------|
-----------------------------------|--3--3--/7--------------------|


        PM   PM PM   PM   PM                  PM   PM         PM          
  E  E  S  S S  S  S S  S S  S  S E     E  E  S  S S  S  E  S S  E   E    
-------------------------------------|-----------------------------------|
-------------------------------------|-----------------------------------|
----------------------------------2--|----------------2~-L---------------|
-----2-----4-------5----4---------2--|-----2-----4----------4------------|
--0-----0----0--0----0----0--3h-4----|--0-----0----0----------0--3b--3b--|
-------------------------------------|-----------------------------------|


  PM                                   PM   PM PM   PM   PM          
  E  E   S S E  E  E   S S E     E  E  S  S S  S  S S  S S  S  S E   
------------------------------|-------------------------------------|
------------------------------|-------------------------------------|
------------------------------|----------------------------------2--|
----------------7--7-----7-9--|-----2-----4-------5----4---------2--|
--5--5-----5-7--5--5--/9------|--0-----0----0--0----0----0--3h-4----|
--3--3--/7--------------------|-------------------------------------|


        PM   PM         PM            PM                           
  E  E  S  S S  S  E  S S  E   E      E  E   S S E  E  E   S S E   
-----------------------------------|------------------------------|
-----------------------------------|------------------------------|
----------------2~-L---------------|------------------------------|
-----2-----4----------4------------|----------------7--7-----7-9--|
--0-----0----0----------0--3b--3b--|--5--5-----5-7--5--5--/9------|
-----------------------------------|--3--3--/7--------------------|


        PM   PM PM   PM   PM                                        
  E  E  S  S S  S  S S  S S  S  S E     E  S S S S S  S E  E  Q     
-------------------------------------|-----------------------------|
-------------------------------------|-----------------------------|
----------------------------------2--|-----------------------------|
-----2-----4-------5----4---------2--|-----7-5-4-----------7--L----|
--0-----0----0--0----0----0--3h-4----|--0--------7-3h-4-0--5--L----|
-------------------------------------|-----------------------------|


  H        S S S S S S S S     S S S  S Q    H          
----------------------------|-------------------------||
----------------------------|-------------------------||
----------------------------|-------------------------||
--L--------7-5-4---5-4------|----2------2-------------||
--L--------------7-----7-3b-|--L---3h-4-0-------------||
----------------------------|-------------------------||










Lead guitar
This is revision #1 (May 23, 2008).



     W                   W                   W                 
E||-------------------|-------------------|-------------------|
B||-------------------|-------------------|-------------------|
G||-------------------|-------------------|-------------------|
D||-------------------|-------------------|-------------------|
A||-------------------|-------------------|-------------------|
E||-------------------|-------------------|-------------------|


                                           slide guitar      
                                           \6/               
  W                   W                    W                 
-------------------|-------------------|--------------------|
-------------------|-------------------|--12----------------|
-------------------|-------------------|--12----------------|
-------------------|-------------------|--------------------|
-------------------|-------------------|--------------------|
-------------------|-------------------|--------------------|


   \6/                                             \6/               
   W                   W                   Q    E  E   E  E  E  E    
--------------------|-------------------|----------5---L------------|
--------------------|-------------------|-----------------7--5------|
--12----------------|--2----------------|--L--------------------5b--|
--12----------------|-------------------|---------------------------|
--------------------|-------------------|---------------------------|
--------------------|-------------------|---------------------------|


                            \6/          \2/  \0/                               
  H        S S S S E  E     H         S  E.   E   S  S     H          H         
-------------------------|-----------------------------|-----------------------|
-------------------------|--------------17---13--------|-----------------------|
-------------------------|-----------------------14----|--12b--------14--------|
--7--------7-7-7-9-L--9--|--L---------x-------------14-|-----------------------|
-------------------------|-----------------------------|-----------------------|
-------------------------|-----------------------------|-----------------------|


       \1/                                                        
   E   E   E.   S   E   E   E   S  S     H          S  E.   Q     
------20----------/20----------------|---------------------------|
----------13---13------13--13--------|---------------------------|
---L---------------------------14-12-|--12b-----------14----L----|
-------------------------------------|--12b--------14------------|
-------------------------------------|---------------------------|
-------------------------------------|---------------------------|


             \1/                                               
   H         H           W                   W                 
----------------------|-------------------|-------------------|
----------------------|-------------------|-------------------|
---L--------21--------|-------------------|-------------------|
------------21--------|-------------------|-------------------|
----------------------|-------------------|-------------------|
----------------------|-------------------|-------------------|


  W                   W                   W                   W                 
-------------------|-------------------|-------------------|-------------------|
-------------------|-------------------|-------------------|-------------------|
-------------------|-------------------|-------------------|-------------------|
-------------------|-------------------|-------------------|-------------------|
-------------------|-------------------|-------------------|-------------------|
-------------------|-------------------|-------------------|-------------------|


  W                   W                   W                   W                 
-------------------|-------------------|-------------------|-------------------|
-------------------|-------------------|-------------------|-------------------|
-------------------|-------------------|-------------------|-------------------|
-------------------|-------------------|-------------------|-------------------|
-------------------|-------------------|-------------------|-------------------|
-------------------|-------------------|-------------------|-------------------|


  W                   W                   W                   W                 
-------------------|-------------------|-------------------|-------------------|
-------------------|-------------------|-------------------|-------------------|
-------------------|-------------------|-------------------|-------------------|
-------------------|-------------------|-------------------|-------------------|
-------------------|-------------------|-------------------|-------------------|
-------------------|-------------------|-------------------|-------------------|


  W                   W                   W                   W                 
-------------------|-------------------|-------------------|-------------------|
-------------------|-------------------|-------------------|-------------------|
-------------------|-------------------|-------------------|-------------------|
-------------------|-------------------|-------------------|-------------------|
-------------------|-------------------|-------------------|-------------------|
-------------------|-------------------|-------------------|-------------------|


  W                   W                   W                   W                 
-------------------|-------------------|-------------------|-------------------|
-------------------|-------------------|-------------------|-------------------|
-------------------|-------------------|-------------------|-------------------|
-------------------|-------------------|-------------------|-------------------|
-------------------|-------------------|-------------------|-------------------|
-------------------|-------------------|-------------------|-------------------|


  W                   W                   W                   W                 
-------------------|-------------------|-------------------|-------------------|
-------------------|-------------------|-------------------|-------------------|
-------------------|-------------------|-------------------|-------------------|
-------------------|-------------------|-------------------|-------------------|
-------------------|-------------------|-------------------|-------------------|
-------------------|-------------------|-------------------|-------------------|


  W                   W                   H         
-------------------|-------------------|-----------|
-------------------|-------------------|-----------|
-------------------|-------------------|-----------|
-------------------|-------------------|-----------|
-------------------|-------------------|-----------|
-------------------|-------------------|-----------|


  no slide                            
                     PM               
  Q         Q        S  S  E    Q     
-------------------------------------|
-----------15--------x---------------|
-----------14pbr----12-14-12~---L----|
-------------------------------------|
-------------------------------------|
-------------------------------------|


  |---3---|                                
  S   S   S S  S S  E.    Q      E    E    
------------------------------------------|
-------------------12b---12b----12b--12b--|
------------9----9------------------------|
--9h-10h-11---11--------------------------|
------------------------------------------|
------------------------------------------|


  Q      S S  T  T  S S  S   E   E   E   
----------------------------------------|
----------------------------------------|
--9~----11-9-11p-9----9-11b--L---L---L--|
-------------------11-------------------|
----------------------------------------|
----------------------------------------|


  S  E.      S S  T  T  S S   S E  Q      
-----------------------------------------|
-----------------------------------------|
--9-11pbr---11-9-11p-9----9h-11----------|
-----------------------11-------9--L~----|
-----------------------------------------|
-----------------------------------------|


   E    S  S  Q      S  E.      S   S  T   T  S  
----------12--------15--------------------------|
-------12----15b-------15pbr---15p-12-15p-12----|
--14b----------------------------------------14-|
------------------------------------------------|
------------------------------------------------|
------------------------------------------------|


   T   T   S  S  S  T   T  S  T   T   S  S  S   S  S  Q      
------------------------------------------------------------|
--12h-15p-12----12-15p-12----12h-15p-12---------------------|
-------------14-----------14------------14-12h-13-----------|
--------------------------------------------------12--L~----|
------------------------------------------------------------|
------------------------------------------------------------|


   S   S  S  S  S  S    E   S   S  E      S  E.    
--------------------------------------------------|
-------------------------------15-----------------|
---------12----12-14br--L--14b----14pbr--14-12~---|
--12h-14----14------------------------------------|
--------------------------------------------------|
--------------------------------------------------|


   E     E     E     E    Q      Q        H        E   
---------------------------------------|--------------|
--15br--15br--15br---------------------|--------------|
--------------------14b----------------|--------------|
-------------------------12~-----------|--------------|
---------------------------------------|--------------|
--------------------------------12\----|--------------|


   no slide                                                        
   Q        Q      Q     Q        E   E   E   S    S Q    S  S E   
-------------------------------|----------------------------------|
--12-------10------8-----7-----|--5---5---------------------------|
--14b------12b----10b----9b----|--7b--7b--2b--2pbr-0--------------|
-------------------------------|---------------------2----L\-x-5--|
-------------------------------|----------------------------------|
-------------------------------|----------------------------------|


   E    E   S  S  S   S  S  S   S  S  S   S  S  S  
-------12-----12--------12--------12-----12-------|
-----------12--------12--------12-----------12-12-|
--14b------------14b-------14b-------14b----------|
--------------------------------------------------|
--------------------------------------------------|
--------------------------------------------------|


   E    E    Q      Q       S S S S  
------------------------------------|
--15b--15b---L~----15brb------------|
------------------------------------|
------------------------------------|
--------------------------------7-9-|
----------------------------7-9-----|


                                        |---3--|     
   S S S  S S  S S  S S  E   S  T  T  S T   T  T  S  
-----------------------------9----------------------|
-------------------------------12p-9----------------|
-----------------9----9-11b----------11-9h-11p-9----|
-----9-9----9-11---11----------------------------11-|
--11-----11-----------------------------------------|
----------------------------------------------------|


  S  E    S  E     S  S H           S  S S S  S S S  S S S S S S S E   
---------------------------------|-------0------0------0-------3-2-0--|
---------12----------------------|-------------------------0-0-3-2-0--|
--9-11b-----11pbr--9----9--------|--0h-1---0h-1---0h-1---0------------|
---------------------11----------|------------------------------------|
---------------------------------|------------------------------------|
---------------------------------|------------------------------------|


  S  E   S  T  T  S  T  T  S E   E   S E.      E.  S E   E  E   
---------9---------------------------------|-------------------|
-----------12p-9---------------------------|-------------------|
----11b----------11-11p-9----9--11---L-9---|--11---9-L--11--9--|
--------------------------11---------------|-------------------|
-------------------------------------------|-------------------|
-------------------------------------------|-------------------|


                                                            slide guitar     
                                                            \1/         \6/  
   W                     W                   H        Q     E           E    
---------------------|--------------------|---------------------------------|
--12-----------------|---L----------------|---------------------------------|
--11b----------------|---L----------------|----------------21-----------7---|
---------------------|--------------------|----------------21-----------7---|
---------------------|--------------------|---------------------------------|
---------------------|--------------------|---------------------------------|


                     \2/                  \1/ \6/                     /4\       
   H         E   E   Q        E   E   E   E   H           E  E  E  E  H         
--------------------------|------17--------------------|-----------------------|
------------13--13--13----|----------------------------|-----------------------|
--14----------------------|--17------17--14--12--------|-----------------------|
--------------------------|--------------14--12--------|--7--7--7--7--9--------|
--------------------------|----------------------------|-----------------------|
--------------------------|----------------------------|-----------------------|


   /6\       \6/                                               
   H         H           W                   W                 
----------------------|-------------------|-------------------|
------------21--------|-------------------|-------------------|
--14--------21--------|-------------------|-------------------|
--14------------------|-------------------|-------------------|
----------------------|-------------------|-------------------|
----------------------|-------------------|-------------------|


  W                   W                   W                   W                 
-------------------|-------------------|-------------------|-------------------|
-------------------|-------------------|-------------------|-------------------|
-------------------|-------------------|-------------------|-------------------|
-------------------|-------------------|-------------------|-------------------|
-------------------|-------------------|-------------------|-------------------|
-------------------|-------------------|-------------------|-------------------|


  W                   W                   W                   W                 
-------------------|-------------------|-------------------|-------------------|
-------------------|-------------------|-------------------|-------------------|
-------------------|-------------------|-------------------|-------------------|
-------------------|-------------------|-------------------|-------------------|
-------------------|-------------------|-------------------|-------------------|
-------------------|-------------------|-------------------|-------------------|


  W                   W                   W                   W                 
-------------------|-------------------|-------------------|-------------------|
-------------------|-------------------|-------------------|-------------------|
-------------------|-------------------|-------------------|-------------------|
-------------------|-------------------|-------------------|-------------------|
-------------------|-------------------|-------------------|-------------------|
-------------------|-------------------|-------------------|-------------------|


  W                   W                   W                   W                 
-------------------|-------------------|-------------------|-------------------|
-------------------|-------------------|-------------------|-------------------|
-------------------|-------------------|-------------------|-------------------|
-------------------|-------------------|-------------------|-------------------|
-------------------|-------------------|-------------------|-------------------|
-------------------|-------------------|-------------------|-------------------|


  W                   W                   W                 
-------------------|-------------------|-------------------|
-------------------|-------------------|-------------------|
-------------------|-------------------|-------------------|
-------------------|-------------------|-------------------|
-------------------|-------------------|-------------------|
-------------------|-------------------|-------------------|


  W                  
-------------------||
-------------------||
-------------------||
-------------------||
-------------------||
-------------------||




Duration Legend
---------------
W - whole
H - half
Q - quarter
E - 8th
S - 16th
T - 32nd
X - 64th
. - note dotted
|-n-|  - n-tuplets


Tablature Legend
----------------
L - tied note
x - dead note
g - grace note
(n) - ghost note
> - accentuded note
NH - natural harmonic
AH - artificial harmonic
TH - tapped harmonic
SH - semi harmonic
PH - pitch harmonic
h - hammer on
p - pull off
b - bend
br - bendRelease
pb - preBend
pbr - preBendRelease
brb - bendReleaseBend
\n/ - tremolo bar dip
\n - tremolo bar dive
-/n - tremolo bar Release up
/n\ - tremolo bar inverted dip
/n - tremolo bar return
-\n - tremolo bar Release down
S - shift slide
s - legato slide
/ -  slide into from below or out of upwards
\ -  slide into from above or out of downwards
~ - vibrato
W - wide vibrato
tr - trill
TP - tremolo picking
T - tapping
S - slap
P - pop
< - fade in
^ - brush up
v - brush down
comments
We did not receive enough feedback on this tab! Please rate:
print report bad tab
1 2 3 4 5
I want to post or [tab]
guest
You may want to rate the tab now too:
select rating
Please do not post tabs as comments. Select "correction" instead!