Oops, an error
Loading. Please wait.

Whiskey Man Tab

ver1
ver1

Whole song

Interactive

More versions @911Tabs.com
7,875 views 21 this week
1 commentread comment
1 2 3 4 5
excellent!
x 4
Autoscroll
+/-
esc
set tempo
stop
Hey! There's an official Ultimate Guitar app which is ideal
for learning songs when you're away from computer. Get the app
WARNING: You are trying to view
                                    content from Ultimate-Guitar.com
                                    in an unauthorized application,
                                    which is prohibited.

                                    Please use an official Ultimate
                                    Guitar Tabs application for iPhone,
                                    iPad or Android to access legitimate
                                    chords, guitar, bass, and drum tabs
                                    from Ultimate-Guitar.com database.

                                    Type "ultimate guitar tabs" in Apple
                                    App Store's or Android Market's
                                    search to find the application.
#----------------------------------PLEASE NOTE---------------------------------#
#This file is the author's own work and represents their interpretation of the #
#song. You may only use this file for private study, scholarship, or research. #
#------------------------------------------------------------------------------##

                                   WHISKEY MAN
                          As recorded by Molly Hatchet
               (From the 2004 Album MOLLY HATCHET'S GREATEST HITS)

Words and Music by Dave Hlubek, Steve Holland, Bruce Crump, Danny Brown
Transcribed by Bogart121

Gtr I (E A D G B E) - 'Untitled'
Gtr II (E A D G B E) - 'Untitled'
Gtr III (E A D G B E) - 'Untitled'

 Intro
  Q=144(8=s8)
            A5                                C5/G                   D5/A
 4/4
  Gtr I                                         Gtr I
                                          |-3-|                |-3-|
  Q  E H    E   +W           +H     +E  E E E E   +H     +E  E E E E
|-------------|------------|--------------------|-----------------------|
|-------------|------------|--------------------|-----------------------|
|-------------|------------|------------------5-|-(5)----(5)-5-----7----|
|-----------2-|-(2)--------|-(2)----(2)-------5-|-(5)----(5)-5-----7----|
|-----------0-|-(0)--------|-(0)----(0)-0-5s7---|--------------7s9------|
|-------------|------------|--------------------|-----------------------|


                      A5
  Gtr II
   H           Q    E E   +W
|-----------------------|------------|
|-----------------------|------------|
|-----------------------|------------|
|---------------------2-|-(2)--------|
|---------------------0-|-(0)--------|
|-----------------------|------------|
|
| Gtr I
|       |-3-|
|  E  E E E E +E  E E E   +W
|-----------------------|------------|
|-----------------------|------------|
|-(7)-7-----5-(5)-5-----|------------|
|-(7)-7-----5-(5)-5---2-|-(2)--------|
|-------5s7---------0-0-|-(0)--------|
|-----------------------|------------|


                   C5/G                 D5/A
  +H     +H            +W
|--------------------|---------------------|
|--------------------|---------------------|
|--------------------|---------------------|
|-(2)----(2)---------|-(2)-----------------|
|-(0)----(0)---------|-(0)-----------------|
|--------------------|---------------------|
|
|              |-3-|                |-3-|
| +H     +E  E E E E   +H     +E  E E E E
|--------------------|---------------------|
|--------------------|---------------------|
|------------------5-|-(5)----(5)-5-----7--|
|-(2)----(2)-------5-|-(5)----(5)-5-----7--|
|-(0)----(0)-0-5s7---|--------------7s9----|
|--------------------|---------------------|


      D5/A  C5/G      A5                                  C5
  +H          +Q.     E     +W           +W
|-------------------------|------------|--------------------|
|---------------------5b7-|-(5)--------|-(5)----------------|
|---------------------7---|-(7)--------|-(7)----------------|
|-(2)---------(2)---------|------------|--------------------|
|-(0)---------(0)---------|------------|--------------------|
|-------------------------|------------|--------------------|
|
|       |-3-|                                         |-3-|
| +E  E E E E +E  E E E     +W           +H     +E  E E E E
|-------------------------|------------|--------------------|
|-------------------------|------------|--------------------|
|-(7)-7-----5-(5)-5-------|------------|------------------5-|
|-(7)-7-----5-(5)-5---2---|-(2)--------|-(2)----(2)-------5-|
|-------5s7---------0-0---|-(0)--------|-(0)----(0)-0-5s7---|
|-------------------------|------------|--------------------|


             C5/G  D5/A    D5/A  C5/G      A5
  +W                   +H          +Q.     E
|--------------------|-------------------------|
|-(5)----------------|-(5)---------(5)---------|
|-(7)----------------|-(7)---------(7)---------|
|--------------------|---------------------2---|
|--------------------|---------------------0---|
|--------------------|-------------------------|
|
|              |-3-|         |-3-|
| +H     +E  E E E E   +E  E E E E +E  E E E
|--------------------|-------------------------|
|--------------------|-------------------------|
|-(5)----(5)-5-----7-|-(7)-7-----5-(5)-5-------|
|-(5)----(5)-5-----7-|-(7)-7-----5-(5)-5---2---|
|--------------7s9---|-------5s7---------0-0---|
|--------------------|-------------------------|


                                C5/G           C5/G  D5/A
  Gtr II
  +W           +W                   +W
|------------|--------------------|---------------------|
|------------|--------------------|---------------------|
|------------|--------------------|---------------------|
|-(2)--------|-(2)----------------|-(2)-----------------|
|-(0)--------|-(0)----------------|-(0)-----------------|
|------------|--------------------|---------------------|
|
| Gtr I
|                           |-3-|                |-3-|
| +W           +H     +E  E E E E   +H     +E  E E E E
|------------|--------------------|---------------------|
|------------|--------------------|---------------------|
|------------|------------------5-|-(5)----(5)-5-----7--|
|-(2)--------|-(2)----(2)-------5-|-(5)----(5)-5-----7--|
|-(0)--------|-(0)----(0)-0-5s7---|--------------7s9----|
|------------|--------------------|---------------------|


        D5/A     C5/G            A5                            A5
   |--3---| |-3--|  |--3---| |--3--|
   E  E   E E  E E  E  E   E E E   E   E E E E E E E E   E E E E +E  E E     E
|------------------------------------|-----------------|-----------------------|
|--5---------------------------------|-----------------|-----------------------|
|-----7---5-7--5----5----------------|-----------------|-----------------------|
|----------------7-----7---5-7-5-----|-----4-2-5-4-----|-5-4---2-(2)-2-------2-|
|----------------------------------7-|---0-----------0-|-----3-0-(0)-0-------0-|
|------------------------------------|-----------------|---------------3b3.5---|
|
|           |-3--|
| +E    E   E  E E +E    E   E   E     E E E E E E E E   E E E E +E  E E     E
|------------------------------------|-----------------|-----------------------|
|------------------------------------|-----------------|-----------------------|
|-(7)---7--------5-(5)---5-----------|-----------------|-----------------------|
|-(7)---7--------5-(5)---5-------2---|-----4-2-5-4-----|-5-4---2-(2)-2-------2-|
|-----------5/-7-------------0---0---|---0-----------0-|-----3-0-(0)-0-------0-|
|------------------------------------|-----------------|---------------3b3.5---|


 Verse
                          A5
  E E E E E E E E   E E E E +E  E E     E
|-----------------|-----------------------|
|-----------------|-----------------------|
|-----------------|-------2-(2)-----------|
|-----4-2-5-4-----|-5-4-----------------2-|
|---0-----------0-|-----3-------0-------0-|
|-----------------|---------------3b3.5---|
|
| E E E E E E E E   E E E E +E  E E     E
|-----------------|-----------------------|
|-----------------|-----------------------|
|-----------------|-----------------------|
|-----4-2-5-4-----|-5-4---2-(2)-2-------2-|
|---0-----------0-|-----3-0-(0)-0-------0-|
|-----------------|---------------3b3.5---|


                          A5
  E E E E E E E E   E E E E +E  E E     E
|-----------------|-----------------------|
|-----------------|-----------------------|
|-----------------|-----------------------|
|-----4-2-5-4-----|-5-4---2-(2)-2-------2-|
|---0-----------0-|-----3-0-(0)-0-------0-|
|-----------------|---------------3b3.5---|
|
| E E E E E E E E   E E E E +E  E E     E
|-----------------|-----------------------|
|-----------------|-----------------------|
|-----------------|-----------------------|
|-----4-2-5-4-----|-5-4---2-(2)-2-------2-|
|---0-----------0-|-----3-0-(0)-0-------0-|
|-----------------|---------------3b3.5---|


                              A5
  E E Q     E E E E   E   Q   E +Q    Q
|-------------------|-------------------------|
|-------------------|-------------------------|
|---x-7b9---5-----x-|-7b9-5-------------------|
|-------------7-----|---------7-(7)-----------|
|-------------------|-------------------------|
|-------------------|-------------------------|
|
| E E E   E E E E E   E   E E E +E  E E     E
|-------------------|-------------------------|
|-------------------|-------------------------|
|-------------------|-------------------------|
|-----4---2-5-4-----|-5---4---2-(2)-2-------2-|
|---0-------------0-|-------3-0-(0)-0-------0-|
|-------------------|-----------------3b3.5---|


                            A5
    E E E E E E E E   E E E E +E  E E     E
||------------------|-----------------------|
||o-----------------|-----------------------|
||------------------|-----------------------|
||------4-2-5-4-----|-5-4---2-(2)-2-------2-|
||o---0-----------0-|-----3-0-(0)-0-------0-|
||------------------|---------------3b3.5---|
|
|   E E E E E E E E   E E E E +E  E E     E
||------------------|-----------------------|
||o-----------------|-----------------------|
||------------------|-----------------------|
||------4-2-5-4-----|-5-4---2-(2)-2-------2-|
||o---0-----------0-|-----3-0-(0)-0-------0-|
||------------------|---------------3b3.5---|


                            A5            A5
    E E E E E E E E   E E E E +E  E E     E
||------------------|-----------------------|
||o-----------------|-----------------------|
||------------------|-------2-(2)-----------|
||------4-2-5-4-----|-5-4-----------------2-|
||o---0-----------0-|-----3-------0-------0-|
||------------------|---------------3b3.5---|
|
|   E E E E E E E E   E E E E +E  E E     E
||------------------|-----------------------|
||o-----------------|-----------------------|
||------------------|-----------------------|
||------4-2-5-4-----|-5-4---2-(2)-2-------2-|
||o---0-----------0-|-----3-0-(0)-0-------0-|
||------------------|---------------3b3.5---|


                          A5
  E E E E E E E E   E E E E +E  E E     E
|-----------------|-------------------------||
|-----------------|------------------------o||
|-----------------|-------------------------||
|-----4-2-5-4-----|-5-4---2-(2)-2-------2---||
|---0-----------0-|-----3-0-(0)-0-------0--o||
|-----------------|---------------3b3.5-----||
|
| E E E E E E E E   E E E E +E  E E     E
|-----------------|-------------------------||
|-----------------|------------------------o||
|-----------------|-------------------------||
|-----4-2-5-4-----|-5-4---2-(2)-2-------2---||
|---0-----------0-|-----3-0-(0)-0-------0--o||
|-----------------|---------------3b3.5-----||


                                            Chorus
                          A5            D5              C5         G5      A5
  E E E E E E E E   E E E E +E  E E     E    +H.      E E   +Q   E E +Q.   E
|-----------------|-----------------------||--------------|------------------|
|-----------------|-----------------------||--------------|------------------|
|-----------------|-------2-(2)---------2-||-(2)----------|------------------|
|-----4-2-5-4-----|-5-4-----------------0-||-(0)--------5-|-(5)------------2-|
|---0-----------0-|-----3-------0---------||------------3-|-(3)----5-(5)---0-|
|-----------------|---------------3b3.5---||--------------|--------3-(3)-----|
|
| E E E E E E E E   E E E E +E  E E     E    +H.      E E   +Q   E E +Q.   E
|-----------------|-----------------------||--------------|------------------|
|-----------------|-----------------------||--------------|------------------|
|-----------------|---------------------2-||-(2)----------|------------------|
|-----4-2-5-4-----|-5-4---2-(2)-2-------0-||-(0)--------5-|-(5)------------2-|
|---0-----------0-|-----3-0-(0)-0---------||------------3-|-(3)----5-(5)---0-|
|-----------------|---------------3b3.5---||--------------|--------3-(3)-----|


                                      A5    A5      D5
      |--3--|              |--3---|
  Q   E E   E E E E E     +E  E   E E E +H
|-----------------------|-----------------------------|
|-----------------------|-----------5-----------------|
|-----4-2-----2-4---4b6r|=(4)-2-------2-(2)-----------|
|-----------4-----------|---------4-------------------|
|-----------------------|-----------------------------|
|-----------------------|-----------------------------|
|
| E E E   E   E E E E      E    E   E E +E  E E     E
|-----------------------|-----------------------------|
|-----------------------|-----------------------------|
|-----------------------|---------------------------2-|
|-----4---2---5-4-------|--5----4-----2-(2)-2-------0-|
|---0---------------0---|-----------3-0-(0)-0---------|
|-----------------------|---------------------3b3.5---|


               G5           F5
  +Q   E H     E   +H     E Q.
|----------------|---------------|
|----------------|---------------|
|-(2)------------|----------5----|
|----------------|----------3----|
|--------------5-|-(5)-----------|
|--------------3-|-(3)-----------|
|
| +H.        E E   +H     E Q.
|----------------|---------------|
|----------------|---------------|
|-(2)------------|----------5----|
|-(0)------------|----------3----|
|--------------5-|-(5)-----------|
|--------------3-|-(3)-----------|


                                             Interlude
                                        A5                                  C5/G
                                                                        |-3-|
  E E E E E E E E   E E E E +E  E E     E     +W           +H     +E  E E E E
|-----------------|------------------------||------------|--------------------|
|-----------------|-----------------------o||------------|--------------------|
|-----------------|------------------------||------------|------------------5-|
|-----4-2-5-4-----|-5-4---2-(2)-2-------2--||-(2)--------|-(2)----(2)-------5-|
|---0-----------0-|-----3-0-(0)-0-------0-o||-(0)--------|-(0)----(0)-0-5s7---|
|-----------------|---------------3b3.5----||------------|--------------------|
|
|                                                                       |-3-|
| E E E E E E E E   E E E E +E  E E     E     +W           +H     +E  E E E E
|-----------------|------------------------||------------|--------------------|
|-----------------|-----------------------o||------------|--------------------|
|-----------------|------------------------||------------|------------------5-|
|-----4-2-5-4-----|-5-4---2-(2)-2-------2--||-(2)--------|-(2)----(2)-------5-|
|---0-----------0-|-----3-0-(0)-0-------0-o||-(0)--------|-(0)----(0)-0-5s7---|
|-----------------|---------------3b3.5----||------------|--------------------|


  C5/G                    A5
   W           +H.      E E   +W
|------------|--------------|--------|
|------------|--------------|--------|
|--5---------|-(5)----------|--------|
|--5---------|-(5)--------2-|-(2)----|
|------------|----------0-0-|-(0)----|
|------------|--------------|--------|
|
| +W           +H.      E E   +W
|------------|--------------|--------|
|------------|--------------|--------|
|-(5)--------|-(5)----------|--------|
|-(5)--------|-(5)--------2-|-(2)----|
|------------|----------0-0-|-(0)----|
|------------|--------------|--------|


                                            Guitar Solo
                   C5/G           C5/G  D5/A           C5/G       A5
  Gtr III
   W                    W                     H           Q     E E
|--------------------|--------------------||----------------------3-|
|--------------------|--------------------||-------------------/5---|
|--------------------|--------------------||------------------------|
|--------------------|--------------------||------------------------|
|--------------------|--------------------||------------------------|
|--------------------|--------------------||------------------------|
|
| Gtr II
|              |-3-|                |-3-|
| +H     +E  E E E E   +H     +E  E E E E     H           Q     E E
|--------------------|--------------------||------------------------|
|--------------------|--------------------||------------------------|
|------------------5-|-(5)----(5)-5-----7-||----------------------7-|
|-(2)----(2)-------5-|-(5)----(5)-5-----7-||-------------------/9---|
|-(0)----(0)-0-5s7---|--------------7s9---||------------------------|
|--------------------|--------------------||------------------------|
|
| Gtr I
|              |-3-|                |-3-|          |-3-|
| +H     +E  E E E E   +H     +E  E E E E    +E  E E E E +E  E  E E
|--------------------|--------------------||------------------------|
|--------------------|--------------------||------------------------|
|------------------5-|-(5)----(5)-5-----7-||-(7)-7-----5-(5)-5------|
|-(2)----(2)-------5-|-(5)----(5)-5-----7-||-(7)-7-----5-(5)-5----2-|
|-(0)----(0)-0-5s7---|--------------7s9---||-------5s7----------0-0-|
|--------------------|--------------------||------------------------|


                                               C5
  a  H        +Q.     E   S  S S  S Q   E  E E  E
|-3--5--------(5)-----5-|-5h=7p5----5---5--7-5--8-|
|-----------------------|---------7---------------|
|-----------------------|-------------------------|
|-----------------------|-------------------------|
|-----------------------|-------------------------|
|-----------------------|-------------------------|
|
| a  H        +Q.     E   S  S S  S Q   E  E E  E
|-----------------------|-------------------------|
|-----------------------|-------------------------|
|-7--9--------(9)-----9-|-9h11p9----9---9-11-9-12-|
|-----------------------|--------11---------------|
|-----------------------|-------------------------|
|-----------------------|-------------------------|
|
|   +E  E E E  E  E E E   E    E    E E E  E E  E
|-----------------------|-------------------------|
|-----------------------|-------------------------|
|-----------------------|-------------------------|
|---(2)---4----5----4---|-5---------4---5----4--5-|
|---(0)-0---0-----0---0-|------0------0----0----3-|
|-----------------------|-------------------------|


         Am/C5     Am/C   C5          Am/CC5    Am/D5
   +H        +Q.      E    S  S  S  S  Q   E  E  E  E
|--(8)-------(8)------8-|--8h10p=8-----8---8-10--8-10--|
|-----------------------|----------10------------------|
|-----------------------|------------------------------|
|-----------------------|------------------------------|
|-----------------------|------------------------------|
|-----------------------|------------------------------|
|
|  +H        +Q.      E    S  S  S  S  Q   E  E  E  E
|-----------------------|------------------------------|
|-----------------------|------------------------------|
|-(12)------(12)-----12-|-12h14p12----12--12-14-12-14--|
|-----------------------|----------14------------------|
|-----------------------|------------------------------|
|-----------------------|------------------------------|
|
|  +E  E Q    E  E Q       E     E     Q   E  E  E  E
|-----------------------|------------------------------|
|-----------------------|------------------------------|
|-----------------------|------------------------------|
|--(5)-5-7----5--5-7----|--5-----5-----7---5--5--7--7--|
|--(3)-3-3----3--3-3----|--3-----3-----3---3--3--3--5--|
|-----------------------|------------------------------|


       D5Bm/D5     Bm/D   D5          Bm/DD5       F5
   +H        +Q.      E    S  S  S  S  Q   E  E  E  E
|-(10)------(10)-----10-|-10h12p10----10--10-12-10-13-|
|-----------------------|----------12-----------------|
|-----------------------|-----------------------------|
|-----------------------|-----------------------------|
|-----------------------|-----------------------------|
|-----------------------|-----------------------------|
|
|  +H        +Q.      E    S  S  S  S  Q   E  E  E  E
|-----------------------|-----------------------------|
|-----------------------|-----------------------------|
|-(14)------(14)-----14-|-14h16p14----14--14-16-14-17-|
|-----------------------|----------16-----------------|
|-----------------------|-----------------------------|
|-----------------------|-----------------------------|
|
|  +E  E Q    E  E Q       E     E     Q   E  E  E  E
|-----------------------|-----------------------------|
|-----------------------|-----------------------------|
|-----------------------|-----------------------------|
|--(7)-7-9----7--7-9----|--7-----7-----9---7--7--7----|
|--(5)-5-5----5--5-5----|--5-----5-----5---5--5--5--3-|
|-----------------------|---------------------------1-|


                                  G5
             |-----3------|
   +Q.    E  E      E     E     E  E
|-(13)---13-15-----13----------13-15-----|
|------------------------15--------------|
|----------------------------------------|
|----------------------------------------|
|----------------------------------------|
|----------------------------------------|
|
|  +Q.    E  S   S     S     S  E  E
|----------------------------------------|
|----------------------------------------|
|-(17)---17-17h=19p===17-------17-19b21--|
|---------------------------19-----------|
|----------------------------------------|
|----------------------------------------|
|
|  +H       +Q.                    E
|----------------------------------------|
|----------------------------------------|
|----------------------------------------|
|----------------------------------------|
|--(3)------(3)--------------------5-----|
|--(1)------(1)--------------------3-----|


                                               A5
                       |-----3------|
   +Q.           E     E      E     E     E     E
|-(15)----------15----17-----15----------15-------------|
|----------------------------------17----------17b19----|
|----------------------------------------------19-------|
|-------------------------------------------------------|
|-------------------------------------------------------|
|-------------------------------------------------------|
|
|  +E   E  S  S  S  S  S   S     S     S  S  S  S     S
|------17-----------------------------------------------|
|---------17h20p17----17--------------------------------|
|-(19)-------------19-----19----17-------17-------------|
|-------------------------------------19----19-17----19-|
|-------------------------------------------------------|
|-------------------------------------------------------|
|
|  +H                 +Q.                       E
|-------------------------------------------------------|
|-------------------------------------------------------|
|-------------------------------------------------------|
|-----------------------------------------------2-------|
|--(5)----------------(5)-----------------------0-------|
|--(3)----------------(3)-------------------------------|


            |---3---|  |---3---|
   +E    E  E  E    E  E  E    E  E  E
|-------17--------------------------------|
|-(17)-----20-17--------------------------|
|-(19)-------------19-17------17-17-19b21-|
|------------------------19---------------|
|-----------------------------------------|
|-----------------------------------------|
|
|  +Q       Q          H
|-----------------------------------------|
|-----------------------------------------|
|-----------------------------------------|
|-(19)\-----------------------------------|
|-----------------------------------------|
|-----------------------------------------|
|
|  +E    E  E    E     E    E     E  E
|-----------------------------------------|
|-----------------------------------------|
|-----------------------------------------|
|--(2)------4----------5----------4-------|
|--(0)---0-------0----------0--------0----|
|-----------------------------------------|


                                      C5
                                       ~~~~~~
           |---3---|  |---3---|
   +E   E  E  E    E  E  E    E  E     E
|------17-----------------------------------|
|---------20-17-----------------20b22-20b22-|
|-(19)------------19-17------17-------------|
|-----------------------19------------------|
|-------------------------------------------|
|-------------------------------------------|
|
|   H                 Q          E     E
|-------------------------------20b22-20b22-|
|-------------------------------------------|
|-------------------------------------------|
|-------------------------------------------|
|-------------------------------------------|
|-------------------------------------------|
|
|   E   E  E    E     E    E     E     E
|-------------------------------------------|
|-------------------------------------------|
|-------------------------------------------|
|---5------4----------5----------4-----5----|
|-------0-------0----------0-----------3----|
|-------------------------------------------|


       C5 Am/C        C5       Am/C      C5          Am/C     C5      AmD5
 ~~~~~~
   +W                                     H                    Q      E E
|--------------------------------------|-------------------------------------|
|-(20)---------------------------------|-------------------------------------|
|--------------------------------------|--------------------------------7b9==|
|--------------------------------------|-------------------------------------|
|--------------------------------------|-------------------------------------|
|--------------------------------------|-------------------------------------|
|
|                                                     |--3--|
|  +E   E  S  S  S  S  E  E     +E   E    S  S  S  S  E  E  E  Q.       E
|-(20)-20-17h20p17----17---------------|-------------------------------------|
|------------------20----20b22-(20)-20-|-17h20p17----17----17----------------|
|--------------------------------------|----------19----19----19b21----------|
|--------------------------------------|-------------------------------------|
|--------------------------------------|-------------------------------------|
|--------------------------------------|-------------------------------------|
|
|  +E   E  Q           E  E      Q        E     E     Q        E    E E E
|--------------------------------------|-------------------------------------|
|--------------------------------------|-------------------------------------|
|--------------------------------------|-------------------------------------|
|--(5)--5--7-----------5--5------7-----|--5-----5-----7--------5----5-7-7----|
|--(3)--3--3-----------3--3------3-----|--3-----3-----3--------3----3-3-5----|
|--------------------------------------|-------------------------------------|


         D5Bm/D        D5      Bm/D    D5  D5  Bm/D  D5       F5
           |--3---|    |--3--| |-3-|   |--3--| |-3-|
  +E     E E    E E    E E   E E E E   E E   E E E E E   E  E  E
|--------5---------------------------|-------------------------------|
|---------------5------5-------------|-------------------------------|
|-(7)b9====7b9====7b9====7---5---5-7-|-5-----------------------------|
|------------------------------7-----|---7---5---5-------------------|
|------------------------------------|---------7---7-----------------|
|------------------------------------|---------------8---7--5--1-----|
|
|  W                                   H             E   E  E  E
|------------------------------------|-------------------------------|
|------------------------------------|-------------------------------|
|------------------------------------|---------------------17-19b21==|
|------------------------------------|-----------------/19-----------|
|------------------------------------|-------------------------------|
|------------------------------------|-------------------------------|
|
| +E     E Q           E   E   Q       E   E   Q     E   E  E  E
|------------------------------------|-------------------------------|
|------------------------------------|-------------------------------|
|------------------------------------|-------------------------------|
|-(7)----7-9-----------7---7---9-----|-7---7---9-----7---7--7--------|
|-(5)----5-5-----------5---5---5-----|-5---5---5-----5---5--5--3-----|
|------------------------------------|-------------------------1-----|


                                        G5
   +Q      Q                H
|----------------------------------------------|
|----------------------------------------------|
|----------------------------------------------|
|----------------------------------------------|
|----------------------------------------------|
|--(1)-----------------------------------------|
|
|                           |--3---|
|  +E   E  S     +S   S  S  E   E  E  E  E
|----------------------------------------------|
|------20--------------------------------------|
|-(19)----19b21r(19)-17----17--------17-19b21==|
|-----------------------19-----19-17-----------|
|----------------------------------------------|
|----------------------------------------------|
|
|  +H                      +Q.           E
|----------------------------------------------|
|----------------------------------------------|
|----------------------------------------------|
|----------------------------------------------|
|--(3)---------------------(3)-----------5-----|
|--(1)---------------------(1)-----------3-----|


                                       A5
                                  |---3---|
    H                       Q     E  E    E
|-------------------------------------------|
|-------------------------------------------|
|-------------------------------------------|
|-----------------------------------17---19-|
|-------------------------------/19---------|
|-------------------------------------------|
|
|                                 |---3---|
|  +E   E  S     +S   S  S  Q     E  E    E
|-------------------------------------------|
|------20-----------------------------------|
|-(19)----19b21r(19)p17----17\--------------|
|-----------------------19-----------5----7-|
|--------------------------------/7---------|
|-------------------------------------------|
|
|  +H                      +Q.         E
|-------------------------------------------|
|-------------------------------------------|
|-------------------------------------------|
|--------------------------------------2----|
|--(5)---------------------(5)---------0----|
|--(3)---------------------(3)--------------|


          |---3---|         |---3---|
   Q      E  E    E  Q      E  E    E
|-------------------------------------|
|-------------------------------------|
|-17\---------------17\---------------|
|-----------17---19-----------17---19-|
|-------/19---------------/19---------|
|-------------------------------------|
|
|         |---3---|         |---3---|
|  Q      E  E    E  Q      E  E    E
|-------------------------------------|
|-------------------------------------|
|--5\----------------5\---------------|
|------------5----7------------5----7-|
|--------/7----------------/7---------|
|-------------------------------------|
|
| +E  E   E    E     E  E   E    E
|-------------------------------------|
|-------------------------------------|
|-------------------------------------|
|-(2)-----4----------5------4---------|
|-(0)-0--------0--------0--------0----|
|-------------------------------------|


                                 C5
          |---3---|         |---3---|
   Q      E  E    E  Q      E  E    E
|-------------------------------------|
|-------------------------------------|
|-17\---------------17\-------17---19-|
|-----------17---19-------/19---------|
|-------/19---------------------------|
|-------------------------------------|
|
|         |---3---|         |---3---|
|  Q      E  E    E  Q      E  E    E
|-------------------------------------|
|-------------------------------------|
|--5\----------------5\--------5----7-|
|------------5----7--------/7---------|
|--------/7---------------------------|
|-------------------------------------|
|
|  E  E   E    E     E  E   E    E
|-------------------------------------|
|-------------------------------------|
|-------------------------------------|
|--5------4----------5------4----5----|
|-----0--------0--------0--------3----|
|-------------------------------------|


        Am/C      C5    Am/C        C5    Am/C      C5    Am/C   D5
          |--3--|         |--3--|           |--3--|         |---3---|
   Q      E  E  E  Q      E  E  E    Q      E  E  E  Q      E  E    E
|---------------------------------|-----------------------------------|
|-20\-------------20\-------------|-20\-------------20\-------17---20-|
|-----------17-19-----------17-19-|-----------17-19-------/19---------|
|-------/19-------------/19-------|-------/19-------------------------|
|---------------------------------|-----------------------------------|
|---------------------------------|-----------------------------------|
|
|         |--3--|         |--3--|           |--3--|         |---3---|
|  Q      E  E  E  Q      E  E  E    Q      E  E  E  Q      E  E    E
|---------------------------------|-----------------------------------|
|--8\--------------8\-------------|--8\--------------8\--------5----8-|
|------------5--7------------5--7-|------------5--7--------/7---------|
|--------/7--------------/7-------|--------/7-------------------------|
|---------------------------------|-----------------------------------|
|---------------------------------|-----------------------------------|
|
| +E  E   Q        E  E   Q          E  E   Q        E  E   E    E
|---------------------------------|-----------------------------------|
|---------------------------------|-----------------------------------|
|---------------------------------|-----------------------------------|
|-(5)-5---7--------5--5---7-------|--5--5---7--------5--5---7----7----|
|-(3)-3---3--------3--3---3-------|--3--3---3--------3--3---3----5----|
|---------------------------------|-----------------------------------|


      D5          D5    Bm/D        D5    Bm/D      D5        F5
                                                               ~~~~~~
          |--3--|         |--3--|           |--3--|
   Q      E  E  E  Q      E  E  E    Q      E  E  E   Q     E  E
|-20\-------------20\-------------|-20\-------------/20\---17-20b22-|
|-----------17-20-----------17-20-|-----------17-20-----------------|
|-------/19-------------/19-------|-------/19-----------------------|
|---------------------------------|---------------------------------|
|---------------------------------|---------------------------------|
|---------------------------------|---------------------------------|
|
|                                                              ~~~~~~
|         |--3--|         |--3--|           |--3--|
|  Q      E  E  E  Q      E  E  E    Q      E  E  E   Q     E  E
|--8\--------------8\-------------|--8\---------------8\----5--8b10-|
|------------5--8------------5--8-|------------5--8-----------------|
|--------/7--------------/7-------|--------/7-----------------------|
|---------------------------------|---------------------------------|
|---------------------------------|---------------------------------|
|---------------------------------|---------------------------------|
|
| +E  E   Q        E  E   Q          E  E   Q         E  E  E  E
|---------------------------------|---------------------------------|
|---------------------------------|---------------------------------|
|---------------------------------|---------------------------------|
|-(7)-7---9--------7--7---9-------|--7--7---9---------7--7--7-------|
|-(5)-5---5--------5--5---5-------|--5--5---5---------5--5--5--3----|
|---------------------------------|----------------------------1----|


                                 G5
 ~~~~~~
   +E   E  S  S  S  S  E   Q      S  S
|-(20)-20-17h20p17----17--15b17--17------|
|------------------20---------------17h==|
|----------------------------------------|
|----------------------------------------|
|----------------------------------------|
|----------------------------------------|
|
|~~~~~~
|  +E   E  S  S  S  S  E   Q      S  S
|--(8)--8--5h=8p=5-----5----------5------|
|-------------------8------8b10------5h==|
|----------------------------------------|
|----------------------------------------|
|----------------------------------------|
|----------------------------------------|
|
|  +H                 +Q.         E
|----------------------------------------|
|----------------------------------------|
|----------------------------------------|
|----------------------------------------|
|--(3)----------------(3)---------5------|
|--(1)----------------(1)---------3------|


                                        A5
   |--3--|                    |-----3------|
   E  E  E  E  E      +E   E  E     +E     E
|-------------------------20-----------------|
|-20p17----17--------------------------------|
|-------19----19b21==(19)----19b21r(19)p==17-|
|--------------------------------------------|
|--------------------------------------------|
|--------------------------------------------|
|
|  |--3--|                    |-----3------|
|  E  E  E  E  E      +E   E  E     +E     E
|--------------------------8-----------------|
|--8p=5-----5--------------------------------|
|--------7-----7b9====(7)-----7b9r==(7)p===5-|
|--------------------------------------------|
|--------------------------------------------|
|--------------------------------------------|
|
|  H                  +Q.               E
|--------------------------------------------|
|--------------------------------------------|
|--------------------------------------------|
|---------------------------------------2----|
|--5------------------(5)---------------0----|
|--3------------------(3)--------------------|


                              A5
   W                  +W
|------------------|--------------------------|
|------------------|--------------------------|
|------------------|--------------------------|
|-19---------------|-(19)---------------------|
|------------------|--------------------------|
|------------------|--------------------------|
|
|  W                  +W
|------------------|--------------------------|
|------------------|--------------------------|
|------------------|--------------------------|
|--7---------------|--(7)---------------------|
|------------------|--------------------------|
|------------------|--------------------------|
|
|  E E E E E E E E     E  E E E +E  E E     E
|------------------|--------------------------|
|------------------|--------------------------|
|------------------|--------------------------|
|------4-2-5-4-----|---5--4---2-(2)-2-------2-|
|----0-----------0-|--------3-0-(0)-0-------0-|
|------------------|------------------3b3.5---|


                          A5
  Gtr II
  W                 W
|-----------------|-----------------------|
|-----------------|-----------------------|
|-----------------|-----------------------|
|-----------------|-----------------------|
|-----------------|-----------------------|
|-----------------|-----------------------|
|
| Gtr I
| E E E E E E E E   E E E E +E  E E     E
|-----------------|-----------------------|
|-----------------|-----------------------|
|-----------------|-----------------------|
|-----4-2-5-4-----|-5-4---2-(2)-2-------2-|
|---0-----------0-|-----3-0-(0)-0-------0-|
|-----------------|---------------3b3.5---|


                            A5
    E E E E E E E E   E E E E +E  E E     E
||------------------|-----------------------|
||o-----------------|-----------------------|
||------------------|-----------------------|
||------4-2-5-4-----|-5-4---2-(2)-2-------2-|
||o---0-----------0-|-----3-0-(0)-0-------0-|
||------------------|---------------3b3.5---|
|
|   E E E E E E E E   E E E E +E  E E     E
||------------------|-----------------------|
||o-----------------|-----------------------|
||------------------|-----------------------|
||------4-2-5-4-----|-5-4---2-(2)-2-------2-|
||o---0-----------0-|-----3-0-(0)-0-------0-|
||------------------|---------------3b3.5---|


                                        A5
  E E E E E E E E   E E E E +E  E E     E
|-----------------|------------------------||
|-----------------|-----------------------o||
|-----------------|-------2-(2)------------||
|-----4-2-5-4-----|-5-4-----------------2--||
|---0-----------0-|-----3-------0-------0-o||
|-----------------|---------------3b3.5----||
|
| E E E E E E E E   E E E E +E  E E     E
|-----------------|------------------------||
|-----------------|-----------------------o||
|-----------------|------------------------||
|-----4-2-5-4-----|-5-4---2-(2)-2-------2--||
|---0-----------0-|-----3-0-(0)-0-------0-o||
|-----------------|---------------3b3.5----||


                          A5
  E E E E E E E E   E E E E +E  E E     E
|-----------------|-----------------------|
|-----------------|-----------------------|
|-----------------|-----------------------|
|-----4-2-5-4-----|-5-4---2-(2)-2-------2-|
|---0-----------0-|-----3-0-(0)-0-------0-|
|-----------------|---------------3b3.5---|
|
| E E E E E E E E   E E E E +E  E E     E
|-----------------|-----------------------|
|-----------------|-----------------------|
|-----------------|-----------------------|
|-----4-2-5-4-----|-5-4---2-(2)-2-------2-|
|---0-----------0-|-----3-0-(0)-0-------0-|
|-----------------|---------------3b3.5---|


                                            Out-Chorus
                                A5      D5              C5         G5      A5
  E E E E E E E E   E E E E +E  E E     E    +H.      E E   +Q   E E +Q.   E
|-----------------|-----------------------||--------------|------------------|
|-----------------|-----------------------||--------------|------------------|
|-----------------|-------2-(2)---------2-||-(2)----------|------------------|
|-----4-2-5-4-----|-5-4-----------------0-||-(0)--------5-|-(5)------------2-|
|---0-----------0-|-----3-------0---------||------------3-|-(3)----5-(5)---0-|
|-----------------|---------------3b3.5---||--------------|--------3-(3)-----|
|
| E E E E E E E E   E E E E +E  E E     E    +H.      E E   +Q   E E +Q.   E
|-----------------|-----------------------||--------------|------------------|
|-----------------|-----------------------||--------------|------------------|
|-----------------|---------------------2-||-(2)----------|------------------|
|-----4-2-5-4-----|-5-4---2-(2)-2-------0-||-(0)--------5-|-(5)------------2-|
|---0-----------0-|-----3-0-(0)-0---------||------------3-|-(3)----5-(5)---0-|
|-----------------|---------------3b3.5---||--------------|--------3-(3)-----|


                                      A5
      |--3--|              |--3---|
  Q   E E   E E E E E     +E  E   E E E +H
|-----------------------|-----------------------------|
|-----------------------|-----------5-----------------|
|-----4-2-----2-4---4b6r|=(4)-2-------2-(2)-----------|
|-----------4-----------|---------4-------------------|
|-----------------------|-----------------------------|
|-----------------------|-----------------------------|
|
| E E E   E   E E E E      E    E   E E +E  E E     E
|-----------------------|-----------------------------|
|-----------------------|-----------------------------|
|-----------------------|---------------------------2-|
|-----4---2---5-4-------|--5----4-----2-(2)-2-------0-|
|---0---------------0---|-----------3-0-(0)-0---------|
|-----------------------|---------------------3b3.5---|


               C5         G5      A5
  +Q   E H     E   +Q   E E +Q.   E
|----------------|------------------|
|----------------|------------------|
|-(2)------------|------------------|
|--------------5-|-(5)------------2-|
|--------------3-|-(3)----5-(5)---0-|
|----------------|--------3-(3)-----|
|
| +H.        E E   +Q   E E +Q.   E
|----------------|------------------|
|----------------|------------------|
|-(2)------------|------------------|
|-(0)----------5-|-(5)------------2-|
|--------------3-|-(3)----5-(5)---0-|
|----------------|--------3-(3)-----|


                          A5            A5  D5        C5         G5      A5
  E E E E E E E E   E E E E +E  E E     E   H.      E E   +Q   E E +Q.   E
|-----------------|-----------------------|-------------|------------------|
|-----------------|-----------------------|-------------|------------------|
|-----------------|-----------------------|-2-----------|------------------|
|-----4-2-5-4-----|-5-4---2-(2)-2-------2-|-0---------5-|-(5)------------2-|
|---0-----------0-|-----3-0-(0)-0-------0-|-----------3-|-(3)----5-(5)---0-|
|-----------------|---------------3b3.5---|-------------|--------3-(3)-----|
|
| E E E E E E E E   E E E E +E  E E     E   H.      E E   +Q   E E +Q.   E
|-----------------|-----------------------|-------------|------------------|
|-----------------|-----------------------|-------------|------------------|
|-----------------|-----------------------|-2-----------|------------------|
|-----4-2-5-4-----|-5-4---2-(2)-2-------2-|-0---------5-|-(5)------------2-|
|---0-----------0-|-----3-0-(0)-0-------0-|-----------3-|-(3)----5-(5)---0-|
|-----------------|---------------3b3.5---|-------------|--------3-(3)-----|


      |--3--|              |--3---|
  Q   E E   E E E E E     +E  E   E E E +H
|-----------------------|-----------------------------||
|-----------------------|-----------5-----------------||
|-----4-2-----2-4---4b6r|=(4)-2-------2-(2)-----------||
|-----------4-----------|---------4-------------------||
|-----------------------|-----------------------------||
|-----------------------|-----------------------------||
|
| E E E   E   E E E E      E    E   E E +E  E E     E
|-----------------------|-----------------------------||
|-----------------------|-----------------------------||
|-----------------------|-----------------------------||
|-----4---2---5-4-------|--5----4-----2-(2)-2-------2-||
|---0---------------0---|-----------3-0-(0)-0-------0-||
|-----------------------|---------------------3b3.5---||


 Outro
  D5                      F5
  W          +H     +Q.   E
|----------|----------------|
|----------|----------------|
|-2--------|-(2)----(2)-----|
|-0--------|-(0)----(0)-----|
|----------|--------------3-|
|----------|--------------1-|
|
| W          +H     +Q.   E
|----------|----------------|
|----------|----------------|
|-2--------|-(2)----(2)-----|
|-0--------|-(0)----(0)-----|
|----------|--------------3-|
|----------|--------------1-|


                            A5                          A5
  Gtrs I, II
  +W           +H     +Q.   E   E E E E E E E E   E E E E +Q   q
|------------|----------------|-----------------|-------5-(5)--5--*|
|------------|----------------|-----------------|-------5-(5)--5--*|
|------------|----------------|-----------------|-------2-(2)--2--*|
|------------|--------------2-|-----4-2-5-4-----|-5-4---2-(2)--2--*|
|-(3)--------|-(3)----(3)---0-|---0-----------0-|-----3-0-(0)--0--*|
|-(1)--------|-(1)----(1)-----|-----------------|-----------------*|


Duration Legend
---------------
W - whole; H - half; Q - quarter; E - 8th; S - 16th; T - 32nd; X - 64th; a - acciaccatura
+ - note tied to previous; . - note dotted; .. - note double dotted
Uncapitalized letters represent notes that are staccato (1/2 duration)
Irregular groupings are notated above the duration line
Duration letters will always appear directly above the note/fret number it represents the
duration for.  Duration letters with no fret number below them represent rests.  Multi-
bar rests are notated in the form Wxn, where n is the number of bars to rest for.  Low
melody durations appear below the staff

Tablature Legend
----------------
 h   - hammer-on
 p   - pull-off
 b   - bend
 pb  - pre-bend
 r   - bend release (if no number after the r, then release immediately)
 /\  - slide into or out of (from/to "nowhere")
 s   - legato slide
 S   - shift slide
  - natural harmonic
[n]  - artificial harmonic
n(n) - tapped harmonic
 ~   - vibrato
 tr  - trill
 T   - tap
 TP  - trem. picking
 PM  - palm muting
\n/  - tremolo bar dip; n = amount to dip
 \n  - tremolo bar down
 n/  - tremolo bar up
/n\  - tremolo bar inverted dip
 =   - hold bend; also acts as connecting device for hammers/pulls
 <>  - volume swell (louder/softer)
 x   - on rhythm slash represents muted slash
 o   - on rhythm slash represents single note slash

Misc Legend
-----------
 |  - bar
||  - double bar
||o - repeat start
o|| - repeat end
*|  - double bar (ending)
 :  - bar (freetime)
 $  - Segno
 &  - Coda
Tempo markers -  = BPM(8/16=s8/s16), where s8 = swing 8ths, s16 = swing 16ths


***************************************************************************************
* Generated using Power Tab Editor by Brad Larsen - http://powertab.guitarnetwork.org *
***************************************************************************************
comments
print report bad tab
1 comment total.
0 reply
vexor7 wrote on April 20 2010, 02:33 pm

Danm good tab
you put a lot of work into and it really shows
5*

I want to post or [tab]
guest
You may want to rate the tab now too:
select rating
Please do not post tabs as comments. Select "correction" instead!