Oops, an error
Loading. Please wait.

Dear My Lovers Tab

2,018 views 1 this week
no commentswrite comment
1 2 3 4 5
excellent!
x 2
Autoscroll
+/-
esc
set tempo
stop
Hey! There's an official Ultimate Guitar app which is ideal
for learning songs when you're away from computer. Get the app
WARNING: You are trying to view
                                    content from Ultimate-Guitar.com
                                    in an unauthorized application,
                                    which is prohibited.

                                    Please use an official Ultimate
                                    Guitar Tabs application for iPhone,
                                    iPad or Android to access legitimate
                                    chords, guitar, bass, and drum tabs
                                    from Ultimate-Guitar.com database.

                                    Type "ultimate guitar tabs" in Apple
                                    App Store's or Android Market's
                                    search to find the application.
Mongol 800
Dear My Lovers


Intro
e|-----------------------------------|
B|-----------------------------------|
G|-----------------------------------|
D|-----------------------------------|
A|---6--------7-------7---6/7--6-----|
E|-4---4-4/5----5-5/7---7--------9-7-|

e|-----------------------------------|
B|-----------------------------------|
G|-----------------------------------|
D|-----------------------------------|
A|---6--------7-------7---6/7—-6-7-9-|
E|-4---4-4/5----5-5/7---7------------| 

e|------------------------------------|
B|------------------------------------|
G|------------------------------------|
D|------------------------------------|
A|---6--------7-------7---6/7--6-76---|
E|-4---4-4/5----5-5/7---7-----------7-|
                                 P

e|---------------------------------|
B|---------------------------------|
G|---------------------------------|
D|-----------------9---------------|
A|---6-------7-----9---------------|
E|-4---4-4/5---5-5-7---------------|
                     Let ring

e|---------------------------------|
B|---------------------------------|
G|------------------------9--9-9-9-|
D|-6------7--7-7-7-9-9-x--9--9-9-9-|
A|-6------7--7-7-7-9-9-x--7--7-7-7-|
E|-4------5--5-5-5-7-7-x-----------|

                   ~~~~~~~~~~~~~~~~ 
e|---------------------------------|
B|---------------------------------|
G|-6-6-x---------------------------|
D|-6-6-x--7--7-7-7-----------------|
A|-4-4-x--7--7-7-7---7-5-----------|
E|--------5--5-5-5/7-----7--7-7\---|

e|---------------------------------|
B|---------------------------------|
G|------------------------9--9-9-9-|
D|-6------7--7-7-7-9-9-x--9--9-9-9-|
A|-6------7--7-7-7-9-9-x--7--7-7-7-|
E|-4------5--5-5-5-7-7-x-----------|

e|---------------------------------|
B|---------------------------------|
G|-6-6-x---------------------------|
D|-6-6-x--7--7-7-7-9-7-6-2---------|
A|-4-4-x--7--7-7-7-9-7-6-2---------|
E|--------5--5-5-5-7-5-4-0---—-----|
                           Let ring

Verse 1
     P.M.--------------------------|
e|---------------------------------|
B|---------------------------------|
G|-------------------------9-9-9-9-|
D|-6-6-6-6-7-7-7-7-9-9-9-9-9-9-9-9-|
A|-6-6-6-6-7-7-7-7-9-9-9-9-7-7-7-7-|
E|-4-4-4-4-5-5-5-5-7-7-7-7---------|

   P.M.----------------------------|
e|---------------------------------|
B|---------------------------------|
G|-------------------------9-9-9-9-|
D|-6-6-6-6-7-7-7-7-9-9-9-9-9-9-9-9-|
A|-6-6-6-6-7-7-7-7-9-9-9-9-7-7-7-7-|
E|-4-4-4-4-5-5-5-5-7-7-7-7---------|x2

   P.M.------------|
e|---------------------------------|
B|---------------------------------|
G|-------------------------9-------|
D|-6-6-6-6-7-7-7-7-9-9-9-9-9-------|
A|-6-6-6-6-7-7-7-7-9-9-9-9-7-------|
E|-4-4-4-4-5-5-5-5-7-7-7-7---------|

e|---------------------------------|
B|---------------------------------|
G|------------------------9--9-9-9-|
D|-6------7--7-7-7-9-9-x--9--9-9-9-|
A|-6------7--7-7-7-9-9-x--7--7-7-7-|
E|-4------5--5-5-5-7-7-x-----------|x4

Bridge 1
P.M.---|    |---|    |---|    |---|
e|-------------------------------------|
B|-------------------------------------|
G|-6-6-6-6\----------------------------|
D|-6-6-6-6\-9-9-9-9\-7-7-7-7\-6-6-6-6\-|
A|-4-4-4-4\-9-9-9-9\-7-7-7-7\-6-6-6-6\-|
E|----------7-7-7-7\-5-5-5-5\-4-4-4-4\-|x4

Bridge 2
                   ~~~~~~~~~~~~~~~~ 
e|---------------------------------|
B|---------------------------------|
G|-6-6-x---------------------------|
D|-6-6-x--7--7-7-7-----------------|
A|-4-4-x--7--7-7-7---7-5-----------|
E|--------5--5-5-5/7-----7--7-7\---|

e|---------------------------------|
B|---------------------------------|
G|-6-6-x---------------------------|
D|-6-6-x--7--7-7-7-9-7-6-2---------|
A|-4-4-x--7--7-7-7-9-7-6-2---------|
E|--------5--5-5-5-7-5-4-0---—-----|
                           Let ring
                   ~~~~~~~~~~~~~~~~ 
e|---------------------------------|
B|---------------------------------|
G|-6-6-x---------------------------|
D|-6-6-x--7--7-7-7-----------------|
A|-4-4-x--7--7-7-7---7-5-----------|
E|--------5--5-5-5/7-----7--7-7\---|

e|---------------------------------|
B|---------------------------------|
G|-6-6-x---------------------------|
D|-6-6-x--7--7-7-7-9-7-6-2---------|
A|-4-4-x--7--7-7-7-9-7-6-2---------|
E|--------5--5-5-5-7-5-4-0---—-----|
                           Let ring

Verse 2
e|---------------------------------|
B|-------------------------5-------|
G|---------------------------4-----|
D|-6---------------------------7---|
A|-6-------------------------------|
E|-4-------------------------------|
     Let ring

e|---------------------------------|
B|---------------------------------|
G|------------------------------4--|
D|---------------------------6-----|
A|-------------------------6-------|
E|---------------------------------|

e|---------------------------------|
B|-------------------------5-------|
G|-----------------------------4---|
D|---------------------------6-----|
A|---------------------------------|
E|---------------------------------|

e|---------------------------------|
B|---------------------------------|
G|-------------------------------9-|
D|-------------------------------9-|
A|-------------------------------7-|
E|---------------------------------|
Bridge 1
P.M.---|    |---|    |---|    |---|
e|-------------------------------------|
B|-------------------------------------|
G|-6-6-6-6\----------------------------|
D|-6-6-6-6\-9-9-9-9\-7-7-7-7\-6-6-6-6\-|
A|-4-4-4-4\-9-9-9-9\-7-7-7-7\-6-6-6-6\-|
E|----------7-7-7-7\-5-5-5-5\-4-4-4-4\-|x4

Bridge 3
     P.M.--------------------------|
e|---------------------------------|
B|---------------------------------|
G|---------------------------------|
D|-6-6-6-6-6-6-6-6-7-7-7-7-7-7-7-7-|
A|-6-6-6-6-6-6-6-6-7-7-7-7-7-7-7-7-|
E|-4-4-4-4-4-4-4-4-5-5-5-5-5-5-5-5-|

P.M.-------------------------------|
e|---------------------------------|
B|---------------------------------|
G|---------------------------------|
D|-6-6-6-6-6-6-6-6-7-7-7-7-7-7-7-7-|
A|-6-6-6-6-6-6-6-6-7-7-7-7-7-7-7-7-|
E|-4-4-4-4-4-4-4-4-5-5-5-5-5-5-5-5-|x2

P.M.---------|
e|---------------------------------|
B|---------------------------------|
G|-----------------------------8-8-|
D|-6-6-6-6-6-6-6-6-7-7-7-7-9-9-8-8-|
A|-6-6-6-6-6-6-6-6-7-7-7-7-9-9-6-6-|
E|-4-4-4-4-4-4-4-4-5-5-5-5-7-7-----|

Chorus 1
e|-----------------------------------------------|
B|-----------------------------------------------|
G|-9---9—-9-9------------------------------------|
D|-9---9—-9-9--9—--9--9-9--11—-11-11119---9--9-9-|
A|-7---7—-7-7--9—--9--9-9—-11—-11-11119---9—-9-9-|
E|-------------7—--7--7-7—-9--—9--9-9-7---7--7-7-|

e|-----------------------------------------------|
B|-----------------------------------------------|
G|------—------------------9---9--9-9------------|
D|-7---7—-7-7--9—--9--9-9--9---9--9-9-9---9--9-9-|
A|-7---7—-7-7--9—--9--9-9—-7---7--7-7-9---9—-9-9-|
E|-5---5--5-5--7—--7--7-7—------------7---7--7-7-|

e|-----------------------------------------------|
B|-----------------------------------------------|
G|-9---9—-9-9------------------------------------|
D|-9---9—-9-9--9—--9--9-9--11—-11-11119---9--9-9-|
A|-7---7—-7-7--9—--9--9-9—-11—-11-11119---9—-9-9-|
E|-------------7—--7--7-7—-9--—9--9-9-7---7--7-7-|

e|-----------------------------------------------|
B|-----------------------------------------------|
G|------—------------------9---9--9-9------------|
D|-7---7—-7-7--9—--9--9-9--9---9--9-9-9---9--9-9-|
A|-7---7—-7-7--9—--9--9-9—-7---7--7-7-9---9—-9-9-|
E|-5---5--5-5--7—--7--7-7—------------7---7--7-7-|

e|-----------------------------------------------|
B|-----------------------------------------------|
G|-9--x-x-x--------------------------------------|
D|-9--x-x-x---9---9--9-9---11—x-x-x—--9---9--9-9-|
A|-7--x—x-x---9—--9--9-9—--11—x-x-x---9---9—-9-9-|
E|------------7—--7--7-7—--9--x-x-x---7---7--7-7-|

e|-----------------------------------------------|
B|-----------------------------------------------|
G|------—------------------9---9--9-9------------|
D|-7---7—-7-7--9—--9--9-9--9---9--9-9-9---9--9-9-|
A|-7---7—-7-7--9—--9--9-9—-7---7--7-7-9---9—-9-9-|
E|-5---5--5-5--7—--7--7-7—------------7---7--7-7-|

e|-----------------------------------------------|
B|-----------------------------------------------|
G|-9-—x-x-x--------------------------------------|
D|-9--x-x-x---9—--9--9-9---11—x-x-x---9---9--9-9-|
A|-7--x-x-x---9—--9--9-9—--11—x-x-x---9---9—-9-9-|
E|------------7—--7--7-7—--9—-x-x-x---7---7--7-7-|


e|-----------------------------------------------|
B|-----------------------------------------------|
G|-9---9—-9-9------------------------------------|
D|-9---9—-9-9--9—--9--9-9-------------6--7--9--11|
A|-7---7—-7-7--9—--9--9-9—7—-6--7--9-------------|
E|-------------7—--7--7-7—-----------------------|

Interlude
e|---------------------------------------------------------|
B|---------------------------------------------------------|
G|---------------------------------------------------------|
D|---------------------------------------------------------|
A|-7---7-7-9---7-6-7-6---6-------------6-----6-7-6-7-9-----|
E|---------------------9---7---7\5-5-7---7-9-----------7-7/|

e|---------------------------------------------------------|
B|-------------------------------------------------------5-|
G|-----------------------------------------------------4---|
D|---------------------------------------------------2-----|
A|-7---7-7-9---7-6-7-6---6-------------------------2-------|
E|---------------------9---7---7\5-4-2-5-4-2-0-2-0---------|

Bridge 4
P.M.---|    |---|    |---|    |---|
e|-------------------------------------|
B|-------------------------------------|
G|-6-6-6-6\----------------------------|
D|-6-6-6-6\-9-9-9-9\-7-7-7-7\-6-6-6-6\-|
A|-4-4-4-4\-9-9-9-9\-7-7-7-7\-6-6-6-6\-|
E|----------7-7-7-7\-5-5-5-5\-4-4-4-4\-|x2

P.M.---|    |---|    |---|    |---|
e|-------------------------------------|
B|-------------------------------------|
G|-9-9-9-9\-8-8-8-8\-6-6-6-6\-5-5-5-5\-|
D|-9-9-9-9\-8-8-8-8\-6-6-6-6\-5-5-5-5\-|
A|-7-7-7-7\-6-6-6-6\-4-4-4-4\-3-3-3-3\-|
E|-------------------------------------|x2

Bridge 5
     P.M.--------------------------|
e|---------------------------------|
B|---------------------------------|
G|---------------------------------|
D|-6-6-6-6-6-6-6-6-7-7-7-7-7-7-7-7-|
A|-6-6-6-6-6-6-6-6-7-7-7-7-7-7-7-7-|
E|-4-4-4-4-4-4-4-4-5-5-5-5-5-5-5-5-|

P.M.-----------------|   |-|  |-|
e|---------------------------------|
B|---------------------------------|
G|---------------------------------|
D|-6-6-6-6-6-6-6-6-7-7-7-7-7-7-7-7-|
A|-6-6-6-6-6-6-6-6-7-7-7-7-7-7-7-7-|
E|-4-4-4-4-4-4-4-4-5-5-5-5-5-5-5-5-|

P.M.-----------------|   |---|
e|---------------------------------|
B|---------------------------------|
G|---------------------------------|
D|-6-6-6-6-6-6-6-6-7-7-7-7-7-7-7-7-|
A|-6-6-6-6-6-6-6-6-7-7-7-7-7-7-7-7-|
E|-4-4-4-4-4-4-4-4-5-5-5-5-5-5-5-5-|

P.M.---------|
e|---------------------------------|
B|---------------------------------|
G|-----------------------------8-8-|
D|-6-6-6-6-6-6-6-6-7-7-7-7-9-9-8-8-|
A|-6-6-6-6-6-6-6-6-7-7-7-7-9-9-6-6-|
E|-4-4-4-4-4-4-4-4-5-5-5-5-7-7-----|

Chorus 2
e|-----------------------------------------------|
B|-----------------------------------------------|
G|-9---9—-9-9------------------------------------|
D|-9---9—-9-9--9—--9--9-9--11—-11-11119---9--9-9-|
A|-7---7—-7-7--9—--9--9-9—-11—-11-11119---9—-9-9-|
E|-------------7—--7--7-7—-9--—9--9-9-7---7--7-7-|

e|-----------------------------------------------|
B|-----------------------------------------------|
G|------—------------------9---9--9-9------------|
D|-7---7—-7-7--9—--9--9-9--9---9--9-9-9---9--9-9-|
A|-7---7—-7-7--9—--9--9-9—-7---7--7-7-9---9—-9-9-|
E|-5---5--5-5--7—--7--7-7—------------7---7--7-7-|

e|-----------------------------------------------|
B|-----------------------------------------------|
G|-9---9—-9-9------------------------------------|
D|-9---9—-9-9--9—--9--9-9--11—-11-11119---9--9-9-|
A|-7---7—-7-7--9—--9--9-9—-11—-11-11119---9—-9-9-|
E|-------------7—--7--7-7—-9--—9--9-9-7---7--7-7-|

e|-----------------------------------------------|
B|-----------------------------------------------|
G|------—------------------9---9--9-9------------|
D|-7---7—-7-7--9—--9--9-9--9---9--9-9-x--x--9----|
A|-7---7—-7-7--9—--9--9-9—-7---7--7-7-x—-x--9----|
E|-5---5--5-5--7—--7--7-7—------------x—-x--7----|

e|-----------------------------------------------|
B|-----------------------------------------------|
G|-9---9—-9-9------------------------------------|
D|-9---9—-9-9--9—--9--9-9--11—-11-11119---9--9-9-|
A|-7---7—-7-7--9—--9--9-9—-11—-11-11119---9—-9-9-|
E|-------------7—--7--7-7—-9--—9--9-9-7---7--7-7-|

e|-----------------------------------------------|
B|-----------------------------------------------|
G|------—------------------9---9--9-9------------|
D|-7---7—-7-7--9—--9--9-9--9---9--9-9-9---9--9-9-|
A|-7---7—-7-7--9—--9--9-9—-7---7--7-7-9---9—-9-9-|
E|-5---5--5-5--7—--7--7-7—------------7---7--7-7-|

e|-----------------------------------------------|
B|-----------------------------------------------|
G|-9---9—-9-9------------------------------------|
D|-9---9—-9-9--9—--9--9-9--11—-11-11119---9--9-9-|
A|-7---7—-7-7--9—--9--9-9—-11—-11-11119---9—-9-9-|
E|-------------7—--7--7-7—-9--—9--9-9-7---7--7-7-|

e|-----------------------------------------------|
B|-----------------------------------------------|
G|------—------------------9---9--9-9------------|
D|-7---7—-7-7--9—--9--9-9--9---9--9-9-9---9--9-9-|
A|-7---7—-7-7--9—--9--9-9—-7---7--7-7-9---9—-9-9-|
E|-5---5--5-5--7—--7--7-7—------------7---7--7-7-|

Interlude 2
e|---------------------------------------------------------|
B|---------------------------------------------------------|
G|---------------------------------------------------------|
D|---------------------------------------------------------|
A|-7---7-7/9---7-6-7-6---6-------7---7-7-7---6-7-/11---9-9-|
E|---------------------9---7---7/--------------------------|

e|---------------------------------------------------------|
B|---------------------------------------------------------|
G|---------------------------------------------------------|
D|---------------------------------------------------------|
A|/11—-11119\6-6-6-7-6-----------7-7-7-7-6-6---7-----------|
E|---------------------9\7-7---7/------------7-------------|

Outro
P.M.----------| |-----| |-----| |--|
e|---------------------------------|
B|-----9-------9-------10------10--|
G|---9---9---9---9---9---9---9---9-|
D|-9-------9-------9-------9-------|
A|---------------------------------|
E|---------------------------------|

P.M.--| |-----| |-----| |-----| |--|
e|---------------------------------|
B|-----12------12------10------10--|
G|---9---9---9---9---9---9---9---9-|
D|-9-------9-------9-------9-------|
A|---------------------------------|
E|---------------------------------|

e|---------------------------------|
B|-----9-------9-------10------10--|
G|---9---9---9---9---9---9---9---9-|
D|-9-------9-------9-------9-------|
A|---------------------------------|
E|---------------------------------|

e|---------------------------------|
B|-----12------12------10----------|
G|---9---9---9---9---9---9---9-----|
D|-9-------9-------9-------9---9\--|
A|---------------------------------|
E|---------------------------------|

e|---------------------------------|
B|-----9-------9-9-----10------1010|
G|-9-----9---9-------9---9---9-----|
D|-9-------9-------9-------9-------|
A|-7-------------------------------|
E|-0---------------0---------------|

e|---------------------------------|
B|-----12------1212----10------1010|
G|---9---9---9-------9---9---9-----|
D|-9-------9-------9-------9-------|
A|-7---------------7---------------|
E|-0---------------0---------------|

e|---------------------------------|
B|---9---9-----9-------10------10--|
G|-----9-----9---9---9---9---9---9-|
D|-9-------9-------9-------9-------|
A|-7---------------7---------------|
E|-0---------------0---------------|

                   P.M.------------|
e|---------12----------------------|
B|-----12----12--1212--------------|
G|---9---9-----9-----9-9-9-9-9-9-9-|
D|-9-------------------9-9-9-9-9-9-|
A|-7-------------------7-7-7-7-7-7-|
E|-0-------------------0-0-0-0-0-0-|
comments
We did not receive enough feedback on this tab! Please rate:
print report bad tab
1 2 3 4 5
I want to post or [tab]
guest
You may want to rate the tab now too:
select rating
Please do not post tabs as comments. Select "correction" instead!