Oops, an error
Loading. Please wait.

Motorcycle Broer Tab

335 views 1 this week
no commentswrite comment
1 2 3 4 5
please rate
Autoscroll
+/-
esc
set tempo
stop
Contributor
Difficulty
intermediate
Hey! There's an official Ultimate Guitar app which is ideal
for learning songs when you're away from computer. Get the app
WARNING: You are trying to view
                                    content from Ultimate-Guitar.com
                                    in an unauthorized application,
                                    which is prohibited.

                                    Please use an official Ultimate
                                    Guitar Tabs application for iPhone,
                                    iPad or Android to access legitimate
                                    chords, guitar, bass, and drum tabs
                                    from Ultimate-Guitar.com database.

                                    Type "ultimate guitar tabs" in Apple
                                    App Store's or Android Market's
                                    search to find the application.
Track 1
       
E||---------------------|---------------------------------------|
B||---------------------|---------------------------------------|
G||---------------------|--7p--5-------9--------7---------------|
D||--7--------5----7----|---------7------------------7p--5h--7--|
A||---------------------|---------------------------------------|
E||---------------------|---------------------------------------|


 
---------------------|--------------------------|------------------|
---------------------|--------------------------|------------------|
---------------------|--7p--5-------10----12----|--9---------------|
--7--------5----7----|---------7----------------|-------7p--5h--7--|
---------------------|--------------------------|------------------|
---------------------|--------------------------|------------------|


---------------------|---------------------------------------|
---------------------|---------------------------------------|
---------------------|--7p--5-------9--------7---------------|
--7--------5----7----|---------7------------------7p--5h--7--|
---------------------|---------------------------------------|
---------------------|---------------------------------------|


           
---------------------|--------------------------|-----------|
---------------------|--------------------------|-----------|
---------------------|--7p--5-------10----12----|--9--------|
--7--------5----7----|---------7----------------|-----------|
---------------------|--------------------------|-----------|
---------------------|--------------------------|-----------|


                   
-----------------------------------------|---------------------------------|
-----------------------------------------|---------------------------------|
-----------------------------------------|---------------------------------|
--9--------7--L--9--------9--------7--9--|--7--9--11--11--2----------------|
--9--------7--L--9--------9--------7--9--|--7--9--11--11--2----------------|
--7--------5--L--7--------7--------5--7--|--5--7---9---9--0----------------|


                                                 
|----------------------------------|
|----------------------------------|
|----------------------------------|
|--9s----11--------9s----11--------|
|--9s----11--------9s----11--------|
|--7s-----9--------7s-----9--------|


          
--------------------------------------------------|-----------------------|
--------------------------------------------------|-----------------------|
--------------------------------------------------|-----------------------|
--9s----11----9----9s--11--11---------------------|--9s----11----9--------|
--9s----11----9----9s--11--11----2----------------|--9s----11----9--------|
--7s-----9----7----7s---9---9----0----------------|--7s-----9----7--------|


               
-----------------------|--------------------------------------------------|
-----------------------|--------------------------------------------------|
-----------------------|--------------------------------------------------|
--9s----11----9--------|--9s----11----9----9s--11--11---------------------|
--9s----11----9--------|--9s----11----9----9s--11--11----2----------------|
--7s-----9----7--------|--7s-----9----7----7s---9---9----0----------------|


  
---------------------|-------------------------------------------|
---------------------|-------------------------------------------|
---------------------|--7p--5-------9----7h--9--7----------------|
--7--------5----7----|---------7---------------------9----7h--9--|
---------------------|-------------------------------------------|
---------------------|-------------------------------------------|



---------------------|-----------------------------------------------|
---------------------|-----------------------------------------------|
---------------------|--7p--5-------9----7h--9--7----10--------------|
--7--------5----7----|---------7---------------------------7--7h--9--|
---------------------|-----------------------------------------------|
---------------------|-----------------------------------------------|


   
---------------------|--------------------------------------------|
---------------------|--------------------------------------------|
---------------------|--7p--5-------9----7h--9--7----12----10--9--|
--7--------5----7----|---------7----------------------------------|
---------------------|--------------------------------------------|
---------------------|--------------------------------------------|

   
---------------------|----------------------------------------|
---------------------|----------------------------------------|
---------------------|--7p--5-------9----7h--9--7--------L----|
--7--------5----7----|---------7------------------------------|
---------------------|----------------------------------------|
---------------------|----------------------------------------|


          
----------------------------------|
----------------------------------|
----------------------------------|
--9s----11--------9s----11--------|
--9s----11--------9s----11--------|
--7s-----9--------7s-----9--------|

      
--------------------------------------------------|-----------------------|
--------------------------------------------------|-----------------------|
--------------------------------------------------|-----------------------|
--9s----11----9----9s--11--11---------------------|--9s----11----9--------|
--9s----11----9----9s--11--11----2----------------|--9s----11----9--------|
--7s-----9----7----7s---9---9----0----------------|--7s-----9----7--------|

  
-----------------------|---------------------------------|
-----------------------|---------------------------------|
-----------------------|---------------------------------|
--9s----11----9--------|--9s----11----9----9s--11--11----|
--9s----11----9--------|--9s----11----9----9s--11--11----|
--7s-----9----7--------|--7s-----9----7----7s---9---9----|


  PM             PM  PM                   PM              
    
-----------------------------|---------------------------|
-----------------------------|---------------------------|
-----------------------------|---------------------------|
-----------------------------|---------------------------|
--7--------------5h--7-------|------------7--------------|
-----------------------------|---------------------------|


  PM  PM       PM   PM  PM      PM             PM  PM       
    
-----------------------------|-----------------------------|
-----------------------------|-----------------------------|
-----------------------------|-----------------------------|
-----------------------------|-----------------------------|
--5h--7-------12p--10--12----|--7--------------5h--7-------|
-----------------------------|-----------------------------|


            PM                PM  PM       PM   PM  PM   PM  
  
---------------------------|--------------------------------|
---------------------------|--------------------------------|
---------------------------|--------------------------------|
---------------------------|--------------------------------|
------------7--------------|--5h--7-------12p--10--12s--14--|
---------------------------|--------------------------------|


  PM             PM  PM                   PM              
   
-----------------------------|---------------------------|
-----------------------------|---------------------------|
-----------------------------|---------------------------|
-----------------------------|---------------------------|
--7--------------5h--7-------|------------7--------------|
-----------------------------|---------------------------|


  PM  PM       PM   PM  PM      PM             PM  PM       
      
-----------------------------|-----------------------------|
-----------------------------|-----------------------------|
-----------------------------|-----------------------------|
-----------------------------|-----------------------------|
--5h--7-------12p--10--12----|--7--------------5h--7-------|
-----------------------------|-----------------------------|


            PM                PM  PM   PM  PM    PM    PM   PM  
  
---------------------------|-----------------------------------|
---------------------------|-----------------------------------|
---------------------------|-----------------------------------|
---------------------------|-----------------------------------|
------------7--------------|--5h--7----5h--7----10----12s--14--|
---------------------------|-----------------------------------|


  PM             PM  PM                   PM  PM PM    
  
-----------------------------|------------------------|
-----------------------------|------------------------|
-----------------------------|------------------------|
-----------------------------|------------------------|
--7--------------5h--7-------|------------5h--7--5----|
-----------------------------|------------------------|


  PM             PM  PM          PM   PM  PM   PM  
  
-----------------------------|--------------------|
-----------------------------|--------------------|
-----------------------------|--------------------|
-----------------------------|--------------------|
--7--------------5h--7-------|--12p--10--12s--14--|
-----------------------------|--------------------|


  PM             PM  PM                   PM  PM PM    
     
-----------------------------|------------------------|
-----------------------------|------------------------|
-----------------------------|------------------------|
-----------------------------|------------------------|
--7--------------5h--7-------|------------5h--7--5----|
-----------------------------|------------------------|


  PM             PM  PM          PM   PM  PM   PM  

-----------------------------|--------------------|
-----------------------------|--------------------|
-----------------------------|--------------------|
-----------------------------|--------------------|
--7--------------5h--7-------|--12p--10--12s--14--|
-----------------------------|--------------------|


  PM             PM  PM                   PM  PM PM    
   
-----------------------------|------------------------|
-----------------------------|------------------------|
-----------------------------|------------------------|
-----------------------------|------------------------|
--7--------------5h--7-------|------------5h--7--5----|
-----------------------------|------------------------|


  PM             PM  PM          PM   PM  PM      PM             PM  PM       
     
-----------------------------|-----------------|-----------------------------|
-----------------------------|-----------------|-----------------------------|
-----------------------------|-----------------|-----------------------------|
-----------------------------|-----------------|-----------------------------|
--7--------------5h--7-------|--12p--10--12----|--7--------------5h--7-------|
-----------------------------|-----------------|-----------------------------|


            PM  PM PM      PM             PM  PM                   
       
------------------------|-----------------------------|-----------|
------------------------|-----------------------------|-----------|
------------------------|-----------------------------|-----------|
------------------------|-----------------------------|-----------|
------------5h--7--5----|--7--------------5h--7-------|-----------|
------------------------|-----------------------------|-----------|


        
----------------------------------|
----------------------------------|
----------------------------------|
--9s----11--------9s----11--------|
--9s----11--------9s----11--------|
--7s-----9--------7s-----9--------|


           
--------------------------------------------------|
--------------------------------------------------|
--------------------------------------------------|
--9s----11----9----9s--11--11---------------------|
--9s----11----9----9s--11--11----2----------------|
--7s-----9----7----7s---9---9----0----------------|


     PM PM PM PM PM PM        PM PM PM              
   
---------------------------------------------------|
---------------------------------------------------|
---------------------------------------------------|
---------------------------------------------------|
--7--------------------5h--7-----------5h--7--5----|
-----0--0--0--0--0--0---------0--0--0--------------|


     PM PM PM PM PM PM        PM PM PM                 
     
------------------------------------------------------|
------------------------------------------------------|
------------------------------------------------------|
------------------------------------------------------|
--7--------------------5h--7-----------12p--10--12----|
-----0--0--0--0--0--0---------0--0--0-----------------|


     PM PM PM PM PM PM        PM PM PM              
   
---------------------------------------------------|
---------------------------------------------------|
---------------------------------------------------|
---------------------------------------------------|
--7--------------------5h--7-----------5h--7--5----|
-----0--0--0--0--0--0---------0--0--0--------------|


     PM PM PM PM PM PM        PM PM PM                    
    
---------------------------------------------------------|
---------------------------------------------------------|
---------------------------------------------------------|
---------------------------------------------------------|
--7--------------------5h--7-----------12p--10--12s--14--|
-----0--0--0--0--0--0---------0--0--0--------------------|


     PM PM PM PM PM PM        PM PM PM              
    
---------------------------------------------------|
---------------------------------------------------|
---------------------------------------------------|
---------------------------------------------------|
--7--------------------5h--7-----------5h--7--5----|
-----0--0--0--0--0--0---------0--0--0--------------|


     PM PM PM PM PM PM        PM PM PM                 
    
------------------------------------------------------|
------------------------------------------------------|
------------------------------------------------------|
------------------------------------------------------|
--7--------------------5h--7-----------12p--10--12----|
-----0--0--0--0--0--0---------0--0--0-----------------|


     PM PM PM PM PM PM        PM PM PM              
    
---------------------------------------------------|
---------------------------------------------------|
---------------------------------------------------|
---------------------------------------------------|
--7--------------------5h--7-----------5h--7--5----|
-----0--0--0--0--0--0---------0--0--0--------------|


     PM PM PM PM PM PM        PM PM PM                    
    
---------------------------------------------------------|
---------------------------------------------------------|
---------------------------------------------------------|
---------------------------------------------------------|
--7--------------------5h--7-----------12p--10--12s--14--|
-----0--0--0--0--0--0---------0--0--0--------------------|


     PM PM PM PM PM PM        PM PM PM              
    
---------------------------------------------------|
---------------------------------------------------|
---------------------------------------------------|
--7--------------------5h--7-----------5h--7--5----|
---------------------------------------------------|
-----0--0--0--0--0--0---------0--0--0--------------|


     PM PM PM PM PM PM        PM PM PM                    
   
---------------------------------------------------------|
---------------------------------------------------------|
---------------------------------------------------------|
--7--------------------5h--7-----------12p--10--12s--14--|
---------------------------------------------------------|
-----0--0--0--0--0--0---------0--0--0--------------------|


     PM PM PM PM PM PM        PM PM PM              
  
---------------------------------------------------|
---------------------------------------------------|
---------------------------------------------------|
--7--------------------5h--7-----------5h--7--5----|
---------------------------------------------------|
-----0--0--0--0--0--0---------0--0--0--------------|


     PM PM PM PM PM PM        PM PM PM                    
    
---------------------------------------------------------|
---------------------------------------------------------|
---------------------------------------------------------|
--7--------------------5h--7-----------10h--12--12s--14--|
---------------------------------------------------------|
-----0--0--0--0--0--0---------0--0--0--------------------|


     PM PM PM PM PM PM        PM PM PM              
   
---------------------------------------------------|
---------------------------------------------------|
---------------------------------------------------|
--7--------------------5h--7-----------5h--7--5----|
---------------------------------------------------|
-----0--0--0--0--0--0---------0--0--0--------------|


     PM PM PM PM PM PM        PM PM PM                 
    
------------------------------------------------------|
------------------------------------------------------|
------------------------------------------------------|
--7--------------------5h--7-----------12p--10--12----|
------------------------------------------------------|
-----0--0--0--0--0--0---------0--0--0-----------------|


     PM PM PM PM PM PM        PM PM PM              
    
---------------------------------------------------|
---------------------------------------------------|
---------------------------------------------------|
--7--------------------5h--7-----------5h--7--5----|
---------------------------------------------------|
-----0--0--0--0--0--0---------0--0--0--------------|


     PM PM PM PM PM PM                                        
   
---------------------------------------|---------------------|
---------------------------------------|---------------------|
---------------------------------------|---------------------|
--7--------------------5h--7-----------|--7--------5----7----|
---------------------------------------|---------------------|
-----0--0--0--0--0--0------------------|---------------------|


   
-----------------------------------|
-----------------------------------|
--7p--5-------9--------7----11-----|
---------7----------------------9--|
-----------------------------------|
-----------------------------------|


   
---------------------------------------------------------|
---------------------------------------------------------|
------------------------7p--5-------9----7----11---------|
--7h--9--7----5----7-----------7--------------------9----|
---------------------------------------------------------|
---------------------------------------------------------|


 
----------------------------------------------------------------|
----------------------------------------------------------------|
---------9----9--9----11--------13----13--13--15----15--15s--x--|
--7h--9---------------------------------------------------------|
----------------------------------------------------------------|
----------------------------------------------------------------|


 
---------------------|-----------------------------------|
---------------------|-----------------------------------|
---------------------|--7p--5-------9--------7----11-----|
--7--------5----7----|---------7----------------------9--|
---------------------|-----------------------------------|
---------------------|-----------------------------------|


  
---------------------------------------------------------|
---------------------------------------------------------|
------------------------7p--5-------9----7----11---------|
--7h--9--7----5----7-----------7--------------------9----|
---------------------------------------------------------|
---------------------------------------------------------|


   
---------------------------------------------------------|
---------------------------------------------------------|
------------------------7p--5-------9----7----11---------|
--7h--9--7----5----7-----------7--------------------9----|
---------------------------------------------------------|
---------------------------------------------------------|


  
--------------------------------------------------------|
--------------------------------------------------------|
---------9----9--9----11--------13----13--13--15----15--|
--7h--9-------------------------------------------------|
--------------------------------------------------------|
--------------------------------------------------------|


  
|-------------------------------------------------------------||
|-------------------------------------------------------------||
|*--15p--13--13--15p--13--13--15p--13--13--15p--13--15p--13--*||
|*-----------------------------------------------------------*||
|-------------------------------------------------------------||
|-------------------------------------------------------------||



-------------------------------------------------------------||
---15p--13--13--15p--13--13--15p--13--13--15p--13--15p--13---||
*-----------------------------------------------------------*||
*-----------------------------------------------------------*||
-------------------------------------------------------------||
-------------------------------------------------------------||


That's as far as I know.


Duration Legend
---------------
W - whole
H - half
Q - quarter
E - 8th
S - 16th
T - 32nd
X - 64th
. - note dotted
|-n-|  - n-tuplets


Tablature Legend
----------------
L - tied note
x - dead note
g - grace note
(n) - ghost note
> - accentuded note
NH - natural harmonic
AH - artificial harmonic
TH - tapped harmonic
SH - semi harmonic
PH - pitch harmonic
h - hammer on
p - pull off
b - bend
br - bendRelease
pb - preBend
pbr - preBendRelease
brb - bendReleaseBend
\n/ - tremolo bar dip
\n - tremolo bar dive
-/n - tremolo bar Release up
/n\ - tremolo bar inverted dip
/n - tremolo bar return
-\n - tremolo bar Release down
S - shift slide
s - legato slide
/ -  slide into from below or out of upwards
\ -  slide into from above or out of downwards
~ - vibrato
W - wide vibrato
tr - trill
TP - tremolo picking
T - tapping
S - slap
P - pop
< - fade in
^ - brush up
v - brush down
comments
We did not receive enough feedback on this tab! Please rate:
print report bad tab
1 2 3 4 5
I want to post or [tab]
guest
You may want to rate the tab now too:
select rating
Please do not post tabs as comments. Select "correction" instead!