Oops, an error
Loading. Please wait.

Another Morning Bass Tab

871 views 1 this week
no commentswrite comment
1 2 3 4 5
please rate
Autoscroll
+/-
esc
set tempo
stop
WARNING: You are trying to view
                                    content from Ultimate-Guitar.com
                                    in an unauthorized application,
                                    which is prohibited.

                                    Please use an official Ultimate
                                    Guitar Tabs application for iPhone,
                                    iPad or Android to access legitimate
                                    chords, guitar, bass, and drum tabs
                                    from Ultimate-Guitar.com database.

                                    Type "ultimate guitar tabs" in Apple
                                    App Store's or Android Market's
                                    search to find the application.
                                Another Morning
                                The Moody Blues
                                                      Transcribed by Justin Benz


    Orchestra         (fade in)                                                 
G---|-----------------||---------------------------|----------------------------
D---|-----------------||*--------------------------|----------------------------
A---|-----------------||*--5-----5-----5-----5-----|--5-----5-----5-----5-------
E---|-----------------||---------------------------|----------------------------
                                                                                

    0:29                                                                        
G----||--------------------------|--------------------------|-------------------
D---*||--------------------------|--------------------------|-------------------
A---*||--5-----------5-----------|--5-----------5-----------|-------------------
E----||--------5-----------5-----|--------5-----------5-----|--5-----0-----5----
                                                                                

                                                                                
G------------|--------------------------|--------------------|------------------
D------------|--------------------------|--------------------|------------------
A------------|--------------------------|--7-----7--5-----5--|--4-----4---------
E------0-----|--5-----0-----5-----4-----|--------------------|-----------7------
                                                                                

                                                                0:45            
G---------|--------------------------|--------------------------||--------------
D---------|--------------------------|--------------------------||*-------------
A---------|--5-----------5--------5--|--------------------------||*--5----------
E------7--|--------5-----------5-----|--5-----0-----5-----0--5--||---------5----
                                                                                

                                                                                
G------------------|--------------------------|--------------------------|------
D------------------|--------------------------|--------------------------|------
A------5--------5--|--------5-----------------|--5-----------5--------5--|------
E------------5-----|--3-----------5-----0-----|--------5-----------5-----|------
                                                                                

                                                                                
G---------------------------|--------------------|--------------------|---------
D---------------------------|--------------------|--------------------|---------
A---------5-----------7-----|--------------------|--------------------|---------
E---3-----------5-----------|--7-----7--5-----5--|--3-----3--3-----3--|--7------
                                                                                

                                                                                
G------------------|--------------------|--------------------|------------------
D------------------|--------------------|--------------------|------------------
A------------------|--------------------|-----------4--------|--------7---------
E------7--5-----5--|--3-----3--3-----5--|--2-----2--------5--|--5--------5------
                                                                                

                1:27                                                            
G----------------||-----------------------|--------------------|----------------
D---------------*||-----------------------|--------------------|----------------
A---7-----4--7--*||--3-----3--------2--3--|--5-----5-----------|----------------
E----------------||-----------3-----------|-----------2-----5--|--3-----3--3----
                                                                                

                                                                                
G---------|--------------------|--------------------------|---------------------
D---------|--------------------|--------------------------|---------------------
A---------|--5-----5-----------|--3-----3-----------2--3--|--5-----5------------
E------3--|-----------2-----5--|-----------3-----5--------|-----------2---------
                                                                                

                                                                                
G------|--------------------|-----------------------|---------------------------
D------|--------------------|-----------------------|---------------------------
A------|--------------------|-----------------------|---------------------------
E---5--|--3-----3--3-----3--|--5-----5--5-----0--3--|--5-----0--5--5-----0------
                                                                                

                                                                                
G------|--------------------------|--------------------------|------------------
D------|--------------------------|--------------------------|------------------
A------|--5-----------5-----------|--5-----------5--------5--|------------------
E---3--|--------5-----------5-----|--------5-----------5-----|--5-----0---------
                                                                                

                                                                                
G---------------|--------------------------|--------------------|---------------
D---------------|--------------------------|--------------------|---------------
A---------------|--------------------------|--7-----7--5-----5--|--4-----4------
E---5-----0-----|--5-----0-----5-----4-----|--------------------|---------------
                                                                                

                                                                   2:03         
G------------|--------------------------|--------------------------|------------
D------------|--------------------------|--------------------------|------------
A------------|--5-----------5-----------|--5-----------------------|--5---------
E---7-----7--|--------5-----------5-----|--------5-----5-----0--5--|------------
                                                                                

                                                                                
G---------------------|--------------------------|------------------------------
D---------------------|--------------------------|------------------------------
A---------5-----------|--------5-----------------|--5-----------5---------------
E---5-----------5-----|--3-----------5-----0-----|--------5-----------5---------
                                                                                

                                                                                
G---|--------------------------|--------------------|--------------------|------
D---|--------------------------|--------------------|--------------------|------
A---|--------5-----------7-----|--------------------|--------------------|------
E---|--3-----------5-----------|--7-----7--5-----5--|--3-----3--3-----3--|------
                                                                                

                                                                                
G---------------------|--------------------|--------------------|---------------
D---------------------|--------------------|--------------------|---------------
A---------------------|--------------------|-----------4--------|--------7------
E---7-----7--5-----5--|--3-----3--3-----5--|--2-----2--------5--|--5------------
                                                                                

                                                                                
G------------------||---------------------------|--------------------------|----
D------------------||*--------------------------|--------------------------|----
A------7-----4--7--||*--5-----------5-----------|--5-----------5--------5--|----
E---5--------------||---------5-----------5-----|--------5-----------5-----|----
                                                                                

                                                                                
G---------------------------|--------------------------|------------------------
D---------------------------|--------------------------|------------------------
A---------------------------|--------------------------|--7-----7--5-----5------
E---5-----0-----5-----0-----|--5-----0-----5-----4-----|------------------------
                                                                                

                                                                                
G---|--------------------|--------------------------|---------------------------
D---|--------------------|--------------------------|---------------------------
A---|--4-----4-----------|--5-----------5--------5--|---------------------------
E---|-----------7-----7--|--------5-----------5-----|--5-----0-----5-----0------
                                                                                

                                   Repeat and Fade Out                          
G-------||--||-------------------------||---------------------------------------
D------*||--||*-----------------------*||---------------------------------------
A------*||--||*--5-----5-----5-----5--*||---------------------------------------
E---5---||--||-------------------------||---------------------------------------
                                                                                



================================================================================
==                Created with a demo version of BUCKET O' TAB                ==
==                  tablature creation software for Windows                   ==
==                       http://www.his.com/~gse/bucket                       ==
================================================================================



comments
We did not receive enough feedback on this tab! Please rate:
1 2 3 4 5
I want to post or [tab]
guest
You may want to rate the tab now too:
select rating
Please do not post tabs as comments. Select "correction" instead!