Oops, an error
Loading. Please wait.

Legend Of A Mind Bass Tab

902 views 9 this week
1 commentread comment
1 2 3 4 5
excellent!
x 1
Autoscroll
+/-
esc
set tempo
stop
WARNING: You are trying to view
                                    content from Ultimate-Guitar.com
                                    in an unauthorized application,
                                    which is prohibited.

                                    Please use an official Ultimate
                                    Guitar Tabs application for iPhone,
                                    iPad or Android to access legitimate
                                    chords, guitar, bass, and drum tabs
                                    from Ultimate-Guitar.com database.

                                    Type "ultimate guitar tabs" in Apple
                                    App Store's or Android Market's
                                    search to find the application.
                                Legend of a Mind
                                  Moody Blues
                                                      Transcribed by Justin Benz


    Guitar & Vocals        0:16                       8x                        
G---|-----------------||------9------------9----------||-----9------------------
D---|-----------------||*--7------------7------------*||--7-----7--9--7---------
A---|-----------------||*--------7--10--------7--10--*||------------------------
E---|-----------------||------------------------------||------------------------
                                                                                

                                                                                
G---|--------------------------|-----9-----------------|------------------------
D---|--5--------------5--4-----|--7-----7--9--7--4--7--|--5--------------5------
A---|-----------2--5--------5--|-----------------------|-----------2--5---------
E---|--------3-----------------|-----------------------|--------3---------------
                                                                                

                                                                                
G---------|-----9-----------------|--------------------------||-----------------
D---4-----|--7-----7--9--7--4--7--|--5--------------5--4-----||*--5--------5----
A------5--|-----------------------|-----------2--5--------5--||*-----5--7-------
E---------|-----------------------|--------3-----------------||-----------------
                                                                                

                                                           16x                  
G------|---------------||--||------9------------9----------||-----9-------------
D---7--|--7--7--7--7--*||--||*--7------------7------------*||--7-----7--9--7----
A------|--------------*||--||*--------7--10--------7--10--*||-------------------
E------|---------------||--||------------------------------||-------------------
                                                                                

                                                                                
G---------|--------------------------|-----9-----------------|------------------
D------7--|--5--------------5--4-----|--7-----7--9--7--4--7--|--5---------------
A---------|-----------2--5--------5--|-----------------------|-----------2------
E---------|--------3-----------------|-----------------------|--------3---------
                                                                                

                                                                                
G---------------|-----9-----------------|--------------------------||-----------
D------5--4-----|--7-----7--9--7--4--7--|--5--------------5--4-----||*--5-------
A---5--------5--|-----------------------|-----------2--5--------5--||*-----5----
E---------------|-----------------------|--------3-----------------||-----------
                                                                                

                                                                 3x  1:52       
G------------|---------------||--||------9------------9----------||-----9-------
D------5--7--|--7--7--7--7--*||--||*--7------------7------------*||--7-----7----
A---7--------|--------------*||--||*--------7--10--------7--10--*||-------------
E------------|---------------||--||------------------------------||-------------
                                                                                

                                                                                
G------------------|-----9--------------------||------9--------------------|----
D---10\9--6-----6--|--7-----7--10\9--6-----6--||*--7-----7--10\9--6-----6--|----
A------------7-----|--------------------7-----||*--------------------7-----|----
E------------------|--------------------------||---------------------------|----
                                                                                

                                                                                
G------9--------------------|-----7-----7--------5--7--|-----7-----7------------
D---7-----7--10\9--6-----6--|--5-----5-----5--9--------|--5-----5-----5--9------
A---------------------7-----|--------------------------|------------------------
E---------------------------|--------------------------|------------------------
                                                                                

           2x                                                                   
G---5--7---||-----9--------------------|-----9--------------------|-----7--7----
D---------*||--7-----7--10\9--6-----6--|--7-----7--10\9--6-----6--|--5----------
A---------*||--------------------7-----|--------------------7-----|-------------
E----------||--------------------------|--------------------------|-------------
                                                                                

                                                                                
G------7--7-----7--7--||------------------|---------------||--||------9---------
D------------5--------||*--5--------5--7--|--7--7--7--7--*||--||*--7------------
A---5-----------------||*-----5--7--------|--------------*||--||*--------7------
E---------------------||------------------|---------------||--||----------------
                                                                                

                      3x                 Flute                  3:02            
G----------9----------||--------------|--------------------||-------------------
D-------7------------*||--------------|--------------------||*--5-----7---------
A---10--------7--10--*||--7-----------|--------------------||*------------------
E---------------------||--------------|--------------------||-------------------
                                                                                

                          2x                                                    
G------|--5-----4---------||-----------------|/9--5-----------||----------------
D------|-----------------*||--5-----7--------|-------7--------||*--5-----7------
A------|-----------------*||-----------------|----------------||*---------------
E------|------------------||-----------------|----------------||----------------
                                                                                

                             2x                    Flute and Guitar             
G---------|--5-----4---------||-----------------|--------------------||---------
D---------|-----------------*||--5-----7--------|--------------------||*--------
A---------|-----------------*||-----------------|--------------------||*--------
E---------|------------------||-----------------|--------------------||---------
                                                                                

    4:00                              2x                                        
G------------------|--5-----4---------||-----------------|/9--5-----------------
D---5-----7--------|-----------------*||--5-----7--------|-------7--------------
A------------------|-----------------*||-----------------|----------------------
E------------------|------------------||-----------------|----------------------
                                                                                

                                           2x                                   
G---||------------------|--5-----4---------||-----------------------------------
D---||*--5-----7--------|-----------------*||--5-----7--7--7--7--7--7--7--7-----
A---||*-----------------|-----------------*||-----------------------------------
E---||------------------|------------------||-----------------------------------
                                                                                

                                                                                
G---|--------------------------|-----7-----7-----7-----7--|-----7-----7---------
D---|--7--7--7--7--7--7--7--7--|--5-----5-----5-----5-----|--5-----5-----5------
A---|--------------------------|--------------------------|---------------------
E---|--------------------------|--------------------------|---------------------
                                                                                

                                                                                
G---7-----7--|--------7-----------7-----|--------7-----------7-----|------------
D------5-----|-----7-----7-----7-----7--|-----7-----7-----7-----7--|-----7------
A------------|--5-----------5-----------|--5-----------5-----------|------------
E------------|--------------------------|--------------------------|--5---------
                                                                                

                                                                                
G---------------------|--------------------------|------------------------------
D------7-----7-----7--|-----7-----7-----7-----7--|------------------------------
A---------------------|--------------------------|------------------------------
E---5-----5-----5-----|--5-----5-----5-----5-----|--5--5--5--5--5--5--5--5------
                                                                                

                                                                                
G---|--------------------------|--------------------------|---------------------
D---|--------------------------|--------------------------|---------------------
A---|--------------------------|--------------------------|---------------------
E---|--5--5--5--5--5--5--5--5--|--3--3--3--3--3--3--3--3--|--3--3--3--3--3------
                                                                                

                                                                                
G------------|--------------------------|--------------------------|------------
D------------|--------------------------|--------------------------|------------
A------------|--5--5--5--5--5--5--5--5--|--5--5--5--5--5--5--5--5--|------------
E---3--3--3--|--------------------------|--------------------------|--5---------
                                                                                

                                                                                
G---------------------|--------------------------||-----------------------------
D---7-----------7-----|--------7-----------7-----||*--------7-----------7-------
A---------------------|--------------------------||*-----7-----7-----7-----7----
E---------5-----------|--5-----------5-----------||---5-----------5-------------
                                                                                

                                                                                
G---|--------------------------|--------7-----------7-----|---------------------
D---|--------5-----------5-----|-----7-----7-----7-----7--|--------7------------
A---|-----5-----5-----5-----5--|--5-----------5-----------|-----7-----7---------
E---|--3-----------3-----------|--------------------------|--5-----------5------
                                                                                

                                                                                
G-------------||--------------------------|--------------------------||---------
D------7-----*||--------------------------|--------------------------||*--------
A---7-----7--*||--------------------------|--------------------------||*--------
E-------------||--5-----5-----5-----5-----|--5-----5-----5-----5-----||---5-----
                                                                                

                                                                                
G------------------------|--------------------------|--------7-----------7------
D------7-----------7-----|--------5-----------5-----|-----7-----7-----7---------
A---7-----7-----7-----7--|-----5-----5-----5-----5--|--5-----------5------------
E------------5-----------|--3-----------3-----------|---------------------------
                                                                                

                                            5:37                                
G------|---------------------------||--||----------10-------------10------|-----
D---7--|--------7-----------7-----*||--||*-----10------10-----10------10--|-----
A------|-----7-----7-----7-----7--*||--||*--8--------------8--------------|-----
E------|--5-----------5------------||--||---------------------------------|-----
                                                                                

                                                                                
G---------------------------------|--------7-----------7-----|------------------
D----------10-------------10------|-----7-----7-----7-----7--|--------7---------
A------10------10-----10------10--|--5-----------5-----------|-----7-----7------
E---8--------------8--------------|--------------------------|--5---------------
                                                                                

                                                       6:24                     
G----------------||--||----------------------------||---------------------------
D---------7-----*||--||*--------7-----------7-----*||--------7--5--4------------
A------7-----7--*||--||*-----7-----7-----7-----7--*||-----7-----------7--5------
E---5------------||--||---5-----------5------------||--5------------------------
                                                                                

                               Fade out                                         
G------|--------------------------||--------------------------------------------
D------|-----------------4--5--6--||--------------------------------------------
A---4--|-----4--5--6--7-----------||--------------------------------------------
E------|--5-----------------------||--------------------------------------------
                                                                                



================================================================================
==                Created with a demo version of BUCKET O' TAB                ==
==                  tablature creation software for Windows                   ==
==                       http://www.his.com/~gse/bucket                       ==
================================================================================



comments
We did not receive enough feedback on this tab! Please rate:
1 2 3 4 5
1 comment total.
0 reply
swave75 wrote on July 15 2012, 02:10 am

Great tab for a classic!

I want to post or [tab]
guest
You may want to rate the tab now too:
select rating
Please do not post tabs as comments. Select "correction" instead!