Oops, an error
Loading. Please wait.

Dawn Of The Angry Tab

ver3
ver3

Whole song

Interactive

More versions @911Tabs.com
1,612 views 3 this week
1 commentread comment
1 2 3 4 5
worth learning
x 1
Autoscroll
+/-
esc
set tempo
stop
Contributor
Hey! There's an official Ultimate Guitar app which is ideal
for learning songs when you're away from computer. Get the app
WARNING: You are trying to view
                                    content from Ultimate-Guitar.com
                                    in an unauthorized application,
                                    which is prohibited.

                                    Please use an official Ultimate
                                    Guitar Tabs application for iPhone,
                                    iPad or Android to access legitimate
                                    chords, guitar, bass, and drum tabs
                                    from Ultimate-Guitar.com database.

                                    Type "ultimate guitar tabs" in Apple
                                    App Store's or Android Market's
                                    search to find the application.
Morbid Angel
Dawn Of Angry

                                                                      
d|--------------------------------------------------------------------|
A|--------------------------------------------------------------------|
F|--------------------------------------------------------------------|
C|--------------------------------------------------------------------|
G|--------------------------------------------------------------------|
D|---8888888777774444477774444433334444333344447-7-7-744444477788888--|

                                                                    
d|--------------------------------------------------------------------|
A|--------------------------------------------------------------------|
F|--------------------------------------------------------------------|  X2
C|--------------------------------------------------------------------|
G|----------------------------------------666667777666633336666-------|
D|---888887777444447777444443334443333444-----------------------------|

                                                        
d|--------------------------------------------------------|
A|--------------------------------------------------------|
F|--------------------------------------------------------|  X2
C|----6--------5------------------------------------------|
G|----4--------3------------------------------------------|
D|----4--------3---------8888888877777777-----------------|

                                                                        
d|---------------------------------------|
A|---------------------------------------|
F|---------------------------------------|X4       
C|----------3h5p3------------------------|
G|----8p6-----------6h8p6----------------|
D|--------8-------8-------888777888777---|

                                   
d|---------------------------------------|
A|---------------------------------------|
F|---------------------------------------|X4
C|---------------------------------------|
G|---------------------------------------|
D|--8888444447777444448884444477774444---|


d|--------------------------------------------------------------------|
A|--------------------------------------------------------------------|
F|--------------------------------------------------------------------|
C|--------------------------------------------------------------------|
G|--------------------------------------------------------------------|
D|---888888877777444447777444443333444433334444777777744444477788888--|

                                                                    
d|--------------------------------------------------------------------|
A|--------------------------------------------------------------------|
F|--------------------------------------------------------------------|  X2
C|--------------------------------------------------------------------|
G|----------------------------------------666667777666633336666-------|
D|---888887777444447777444443334443333444-----------------------------|


d|--------------------------------------------------------|
A|--------------------------------------------------------|
F|--------------------------------------------------------|  X2
C|----6--------5------------------------------------------|
G|----4--------3------------------------------------------|
D|----4--------3---------8888888877777777-----------------|

                                                                        
d|---------------------------------------|
A|---------------------------------------|
F|---------------------------------------|X4       
C|----------3h5p3------------------------|
G|----8p6-----------6h8p6----------------|
D|--------8-------8-------888777888777---|
                                                                    

d|---------------------------------------|
A|---------------------------------------|
F|---------------------------------------|X4
C|---------------------------------------|
G|---------------------------------------|
D|--8888444447777444448884444477774444---|                                                        

                                    
d|--------------------------------------------------------------------|
A|--------------------------------------------------------------------|
F|--------------------------------------------------------------------|
C|--------------------------------------------------------------------|
G|--------------------------------------------------------------------|
D|---888888877777444447777444443333444433334444777777744444477788888--|

                                                                    
d|--------------------------------------------------------------------|
A|--------------------------------------------------------------------|
F|--------------------------------------------------------------------|  X2
C|--------------------------------------------------------------------|
G|----------------------------------------666667777666633336666-------|
D|---888887777444447777444443334443333444-----------------------------|
                                                                    
Solo 1
d|-------------------10---------------------------------------------------|
A|---12~-/13-10---12----13-12~--10-12-10-9----10~--10-10--10-9----9-------|
F|-----------------------------------------10------------------10---------|
C|------------------------------------------------------------------------|
G|------------------------------------------------------------------------|
D|------------------------------------------------------------------------|
 
                                                      
d|------------------------------------------------------------------------|
A|-----9-10-12/13\12-10---10-11-13/14\13-10--13p11p10h13-14p12p11h14------|
F|---10-----------------11------------------------------------------------|
C|------------------------------------------------------------------------|
G|------------------------------------------------------------------------|
D|------------------------------------------------------------------------|
                                                       
                                                                    
d|-------------------------------------------------------14b-14p13p12-14--|
A|---15p13p12h15-16p14p1315p13p12p14p12p11p13p11p10--12b------------------|
F|------------------------------------------------------------------------|  
C|------------------------------------------------------------------------|
G|------------------------------------------------------------------------|
D|------------------------------------------------------------------------|

 
d|--15--17b-17-15-17b~----------------------------------------------------|
A|------------------------------------------------------------------------|
F|------------------------------------------------------------------------|
C|------------------------------------------------------------------------|
G|------------------------------------------------------------------------|
D|------------------------------------------------------------------------|

                                                                        
E|------------------------------------------------------------------------|
B|------------------------------------------------------------------------|
G|------------------------------------------------------------------------|X3
D|------------------------------------------------------------------------|
A|-----------------2-2-2---3---2---------------------------------2-5-5~---|
E|---3----4-3---------------------------4-7-4---3-----4-------------------|

                                                                        
d|------------------------------------------------------------------------|
A|------------------------------------------------------------------------|
F|------------------------------------------------------------------------|
C|-------------------------------------------------------7--7~------------|
G|------------2-2-2---3---2---------------------------2--5--5~------------|
D|--3-----4-3-----------------4-7-4--3-----4p3h4---------5--5~------------|

                                                     
 d|------------------------------------------------------|
 A|------------------------------------------------------|
 F|------------------------------------------------------| X2
 C|----5---5------8---5------6---5-----8--9--9--6--6-----|
 G|----3---3------6---3------4---3-----6--7--7--4--4-----|
 D|----3---3------6---3------4---3-----6--7--7--4--4-----|

                                                        
 d|------------------------------------------------------|
 A|------------------------------------------------------|
 F|------------------------------------------------------|X5
 C|---5--5--5----8--5--5----6--5--5----8--9--9--6--6-----|
 G|---3--3--3----6--3--3----4--3--3----6--7--7--4--4-----|
 D|---3--3--3----6--3--3----4--3--3----6--7--7--4--4-----|

                                                                      
 d|------------------------------------------------------|
 A|------------------------------------------------------|
 F|------------------------------------------------------| 
 C|----6--------5----------------------------------------|
 G|----4--------3----------------------------------------|
 D|----4--------3---------8888888877777777---------------|

                                                      
 d|------------------------------------------------------|
 A|------------------------------------------------------|
 F|------------------------------------------------------|X3
 C|---5--5--5----8--5--5----6--5--5----8--9--9--6--6-----|
 G|---3--3--3----6--3--3----4--3--3----6--7--7--4--4-----|  
 D|---3--3--3----6--3--3----4--3--3----6--7--7--4--4-----|


                                                                  
 d|------------------------------------------------------|
 A|------------------------------------------------------|
 F|------------------------------------------------------|X3 
 C|----6--------5----------------------------------------|
 G|----4--------3----------------------------------------|
 D|----4--------3---------8888888877777777---------------|


                                  
 d|---------------------------------------|
 A|---------------------------------------|
 F|---------------------------------------|X3       
 C|----------3h5p3------------------------|
 G|----8p6-----------6h8p6----------------|
 D|--------8-------8-------888777888777---|
                                                                    

 d|---------------------------------------|
 A|---------------------------------------|
 F|---------------------------------------|X4
 C|---------------------------------------|
 G|---------------------------------------|
 D|--8888444447777444448884444477774444---|   
                                                                    
 d|--------------------------------------------------------------------|
 A|--------------------------------------------------------------------|
 F|--------------------------------------------------------------------|
 C|--------------------------------------------------------------------|
 G|--------------------------------------------------------------------|
 D|---888888877777444447777444443333444433334444777777744444477788888--|

                                                                    
 d|--------------------------------------------------------------------|
 A|--------------------------------------------------------------------|
 F|--------------------------------------------------------------------|  X2
 C|--------------------------------------------------------------------|
 G|----------------------------------------666667777666633336666-------|
 D|---888887777444447777444443334443333444-----------------------------|
                                                                    

                                                      
 d|---------------------------------------------------------------|
 A|---------------------------------------------------------------|
 F|---------------------------------------------------------------|
 C|---------------------------------------------------------------|
 G|----------------2-2-2--3-2--------------------------2---5--5~--|
 D|--3----4--3-----------------4-7-4--2------4--------------------|

                                                      
 d|---------------------------------------------------------------|
 A|---------------------------------------------------------------|
 F|---------------------------------------------------------------|
 C|--------------------------------------------------------7--7~--|
 G|----------------2-2-2--3-2--------------------------2---5--5~--|
 D|--3----4--3-----------------4-7-4--3-------4p3h4--------5--5~--|


Sorry, but I couldn't tab the second solo by Trey
Enjoy!
comments
We did not receive enough feedback on this tab! Please rate:
print report bad tab
1 2 3 4 5
1 comment total.
0 reply
cjdabest wrote on July 24 2009, 11:37 pm

probably the best tab for the site, only the songs in Eb =P, basically mover everything up a fret in Eb....

I want to post or [tab]
guest
You may want to rate the tab now too:
select rating
Please do not post tabs as comments. Select "correction" instead!