Oops, an error
Loading. Please wait.

Fall From Grace Tab

ver3
ver3

Whole song

Interactive

More versions @911Tabs.com
420 views 1 this week
no commentswrite comment
1 2 3 4 5
please rate
Autoscroll
+/-
esc
set tempo
stop
Contributor
Hey! There's an official Ultimate Guitar app which is ideal
for learning songs when you're away from computer. Get the app
WARNING: You are trying to view
                                    content from Ultimate-Guitar.com
                                    in an unauthorized application,
                                    which is prohibited.

                                    Please use an official Ultimate
                                    Guitar Tabs application for iPhone,
                                    iPad or Android to access legitimate
                                    chords, guitar, bass, and drum tabs
                                    from Ultimate-Guitar.com database.

                                    Type "ultimate guitar tabs" in Apple
                                    App Store's or Android Market's
                                    search to find the application.
"FALL FROM GRACE" - Morbid Angel - Blessed Are The Sick


Tuning (Low - High): Eb Ab Db Gb Bb Eb


A (0:00)
|------------------------------------5---4~---|
|---------------------------------------------|
|-2--4--3------7--6--5--2--4--3------3---2~---|
|-0--2--1--0-1-5--4--3--0--2--1--0-1-5---4~---|
           . .                   . .

                                         A.H.
|---------------------------------------------|
|---------------------------------------------|
|-2--4--3------7--6--5--2--4--3----------2-1~-|
|-0--2--1--0-1-5--4--3--0--2--1--2-3-1-2------|
           . .                   . . . .


Repeat A


B (0:25)
|------------------------------------------------|
|------------------------------------------------|
|----22224-----44443-------------33334-----22224-|
|-1---------1---------4p3h4p3-1---------1--------|
  .         .                 .         .


C (0:30)                                      A.H.
|------------------------------------------------|
|---------------------------------------------3~-|
|----22224-----44443-------------33334----\4-----|
|-1---------1---------4p3h4p3-1---------1--------|
  .         .                 .         .


Repeat B


D (0:39)
|--------------------------------------|
|--------------------------------------|
|----22224-----44443-------------33334-|
|-1---------1---------4p3h4p3-1--------|
  .         .                 .


E (0:42)
|-------3-----------------------|
|----------4--3--2--3--2--------|
|-3--4--------------------3--2--|
|-------------------------------|
  . .      . . . . . . .
F (0:44)
|---------------------------------------------------------5-7-6--|
|--------------------------4\7/6\7------------------------5-7-6--|
|----------------------------------------------------------------|
|-6/3------4/3------3------2\5/4\5-2------3------6/5------3-5-4--|
|-4/1--1-1-2/1--1-1-1--0-0---------0--0-0-1--1-1-4/3--3-3--------|
       . .      . .    . .            . .    . .      . .


G (0:49)
|----------------------------------------------------------------|
|--------------------------4\7/6\7------------------------5---7/-|
|---------------------------------------------------------5---7/-|
|-6/3------4/3------3------2\5/4\5-2------3------6/5------3---5--|
|-4/1--1-1-2/1--1-1-1--0-0---------0--0-0-1--1-1-4/3--3-3--------|
       . .      . .    . .            . .    . .      . .


H (0:53)
|----------------------------------------------------------------|
|--------------------------4\7/6\7------------------------5-7/6/-|
|---------------------------------------------------------5-7/6/-|
|-6/3------4/3------3------2\5/4\5-2------3------6/5------3-5/4/-|
|-4/1--1-1-2/1--1-1-1--0-0---------0--0-0-1--1-1-4/3--3-3--------|
       . .      . .    . .            . .    . .      . .


I (0:58)
|-----------------------------------------------------|
|--------------------------4\7/6\7--------------------|
|-----------------------------------------------------|
|-6/3------4/3------3------2\5/4\5-2------3------6-5--|
|-4/1--1-1-2/1--1-1-1--0-0---------0--0-0-1--1-1-4-3--|
       . .      . .    . .            . .    . .


J (0:62)                                       Play 3 Times
|----------------------------------|-----------------------------------|
|---------------------2h3h4p3------|-----------------------------------|
|-----------------------------5/---|--------------223333333322224444---|
|-111111111111111222---------------|-0000000011111-------------------4/|


K (1:15)
|----------------------------------|----------------------|-----|
|---------------------2h3h4p3------|-----------------5----|-----|
|-----------------------------5/---|-------------2-2-3----|-4\5-|
|-111111111111111222---------------|-000000001111---------|-2\3-|


L (1:19)
|------------------------------------|
|----------------------------8-------|
|-2---5/4\5--3---5-/4--445---8---7-3-|
|-0---3/2\3--1---3-/2--223---6---5-1-|
                       ..
M (1:21)
|------------------------------------|
|----------------------------8-8-----|
|-2---5/4\5--3---5-/4--445-5-8-8-7-3-|
|-0---3/2\3--1---3-/2--223-3-6-6-5-1-|
                       ..


Repeat L & M


N (1:27)                                               Play 4 Times
|-----------------------------------------------------------------|
|--------------------------4\7/6\7------------------------5\7-765-|
|---------------------------------------------------------5\7-765-|
|-6/3------4/3------3------2\5/4\5-2------3------6/5------3\5-543-|
|-4/1--1-1-2/1--1-1-1--0-0---------0--0-0-1--1-1-4/3--3-3---------|
       . .      . .    . .            . .    . .      . .


Play J Three Times


Play K


Play M Four Times


O (2:10)
|---------------------------------------------------------------------------|
|-2---5---3---4---2---5---3---------2---5---3---4---2---3-------------------|
|-------------4---------------6-5-4-------------4-----------2--5-455-7--5-4-|
|-0---3---1---2---0---3---1---4-3-2-0---3---1---2---0---1---0--3-233-5--3-2-|


P (2:19)                                          Play 2 Times
|------------------------------------------------------------|
|-----------------------444444-3----------------------5-7----|
|-------------2-2-5-5-5------------2------5/4--5------3-5-6--|
|-4/1-1-1-4-4----------------------0--0-0-3/2--3--3-3-----4--|
                                      . .         . .


Q (2:28)                                                  Play 3 Times
                                                              A.H..
|----------------------------------|---------------------------------|
|--------------4---5---2-----------|--------------4------------------|
|-\6-/-3-------2-----------3-2-3---|-/6-\-3-------2---5---2---3~2~---|
|-\4-/-1---1-1-2---3---0-------1---|-/4-\-1---1-1-2---3---0-------1~-|
           . .             . .                . .

R (2:57)                         A.H..
|--------------------------|---------|
|-----------------3\4------|-3-4-3--3|
|-----------------1\2------|-1-2-----|
|-1111111111111111---------|---------|
  ................
S (2:59)                          A.H.
|----------------------------------|
|---------------------------------3|
|-------------------------5-5-4-4--|
|---1-1-1-1-1-1-1-3-3-2-2----------|


T (3:01)                       A.H..
|----------------------------------|
|----------------3-4--2---3-4--3--3|
|----------------1-2--0---1-2------|
|----1-1-1-1-1-1-------------------|


U (3:04)
|----------------------------------|
|------------------5-4---7----6----|
|--------------3-6-3-2---5----4----|
|----1-1-1-1-1-1-4-----------------|


V (3:06)                       A.H..                       Play 3 Times
|---------------------------------------------------------------------|
|----------------3-4--2---3-4--3--3-------------------5-4---7----6----|
|----------------1-2--0---1-2---------------------3-6-3-2---5----4----|
|1-1-1-1-1-1-1-1----------------------1-1-1-1-1-1-1-4-----------------|


W (3:18)                       A.H.
|----------------------------------|
|----------------3-4--2---3-4--3---|
|----------------1-2--0---1-2------|
|1-1-1-1-1-1-1-1-------------------|


X (3:20)                Play 3 Times
|----------------------------------|
|------------------------3\4-------|
|2--3\5-/3-------2---3\4-1\2-3-----|
|0--1\3-/1-------0---1\2-----1-----|
 .               .


Y (3:27)
|----------------------------------|
|----------------------------------|
|2--3\5-/3--4\5--------------------|
|0--1\3-/1--2\3--------------------|
 .


Z (3:29)
|-----------------------------------------------------------------------|
|----5---3---4-------5---3-------------5---3---4-------------13-------4-|
|2-----------4---2-----------6-5-4-2-----------4---2---3---4\13---6---2-|
|0---3---1---2---0---3---1---4-3-2-0---3---1---2---0---1---2\11---4-----|
                             . .                                  .   .
Repeat B


AA (3:41)
|------------------------------------------------|
|------------------------------------------------|
|----22224-----44443-------------44445----\5~--3~|
|-1---------1---------4p3h4p3-2---------2--------|
  .         .                 .         .


Repeat B


BB (3:48)
|------------------------------------------------|
|--------------------------------6---7-----7---5-|
|----22224-----44443--\6------4--4---5--4--5---3-|
|-1---------1---------\4------2---------2--------|
  .         .                 .         .


CC (3:51)
|------------------------------------6---7-----7---5-|
|-----------6--7------------8--7-----6---7-----7---5-|
|-8-6-5--4--4--5--7-5-4-/5--8--7--4--4---5--4--5---3-|
|-6-4-3--2--------5-3-2-/3--6--5--2---------2--------|
  . .             . .             .         .


DD (3:55)
|-----------6--7-------------------------|
|-----5--4--6--7------------5----4----3--|
|-7-6-5--4--4--5--7-6-5--4---------------|
|-5-4-3--2--------5-4-3--2--3----2----1--|
  . .             . .


EE (Guitar 1) (4:00)
|----------------------------|
|----------------------------|
|-2---------2-2--------5-4---|
|-0---3~-4~-0-0--4~-2~-3-2-1~|
| .         . .        . .
|
| (Guitar 2)
|----------------------------|
|----------------------------|
|-----2~-3~------3~-1~-------|
|----------------------------|
FF (Guitar 1) (4:04)
|----------------------------|
|----------------------6--5--|
|-2---------5-4--------------|
|-0---3~-4~-3-2--0--1--4--3--|
| .         . .
|
| (Guitar 2)
|----------------------------|
|----------------------------|
|-----2~-3~------------------|
|----------------------------|


Repeat EE


GG (Guitar 1) (4:11)
|----------------------------|
|----------------------------|
|-2---------5-4--------------|
|-0---3~-4~-3-2--0--1--4--3--|
| .         . .
|
| (Guitar 2)
|----------------------------|
|----------------------------|
|-----2~-3~------------------|
|----------------3--4--7--6--|


HH (Guitar 1) (4:14)
|----------------------------|
|----------------------------|
|-2---------2-2--------------|
|-0---3~-4~-0-0--4~-2~-3-2-1~|
| .         . .        . .
|
| (Guitar 2)
|----------------------------|
|----------------------------|
|-----5~-6~------6~-4~-------|
|----------------------8-6-4~|
                       . .


II (Guitar 1) (4:18)
|----------------------------|
|----------------------------|
|-2---------5-4--------------|
|-0---3~-4~-3-2--0--1--4--3--|
| .         . .
|
| (Guitar 2)
|----------------------------|
|----------------------------|
|-----5~-6~------------------|
|----------------3--4--7--6--|
Repeat HH (4:21)


Repeat II (4:24)


Repeat A twice (4:28)


Repeat F (4:53)


Repeat H twice (4:58)


Repeat I (5:07
comments
We did not receive enough feedback on this tab! Please rate:
print report bad tab
1 2 3 4 5
I want to post or [tab]
guest
You may want to rate the tab now too:
select rating
Please do not post tabs as comments. Select "correction" instead!