Oops, an error
Loading. Please wait.

God Of Emptiness Bass Tab

ver1
ver1

Whole song

Interactive

More versions @911Tabs.com
4,055 views 14 this week
2 commentsread comments
1 2 3 4 5
excellent!
x 5
Autoscroll
+/-
esc
set tempo
stop
Hey! There's an official Ultimate Guitar app which is ideal
for learning songs when you're away from computer. Get the app
WARNING: You are trying to view
                                    content from Ultimate-Guitar.com
                                    in an unauthorized application,
                                    which is prohibited.

                                    Please use an official Ultimate
                                    Guitar Tabs application for iPhone,
                                    iPad or Android to access legitimate
                                    chords, guitar, bass, and drum tabs
                                    from Ultimate-Guitar.com database.

                                    Type "ultimate guitar tabs" in Apple
                                    App Store's or Android Market's
                                    search to find the application.
Newsgroups: rec.music.makers.bass
From: wfpol@cs.ruu.nl (Wilbert Pol)
Subject: TAB/BTAB: Morbid Angel - God of Emptiness


Someone requested some Morbid Angel tunes, so here's one.

		    God of Emptiness  -  Morbid Angel
                    ---------------------------------

I have the guitar and bass guitar parts from the Guitar School of September.
The guitar parts were transcribed by Andy Aledort and the bass part by
Micheal DuClos.
This song should be played on a 7-string guitar and a 5-string bass, both
tuned down a half step (Or tuned down 3 whole steps (to Bb!) on a regular guitar
and bass).
Because not everybody owns a 7-string guitar or a 5-string bass, the entire
song has been arranged for a normal 6-string guitar and a 4-string bass.
It sounds really great on a 5-string bass !

I tried to stick as close as possible to the original sheet music and also
included all timings with quite obvious abbreviations (w - whole note, h -
half note, q - quarter note, e - eigth note, s - sixteenth note, t -
thirty-second note). There are also some timing-indications written with
a capital, these are rests of the corresponding length.

Because I can't play along with a drummer, I've transcribed the drums
myself so I can let a drummachine play the drums. The drums are at the
end of this file.



                       The Guitar Part
                       ---------------

Most of this song is being played by two guitars. In some places the
two guitars are arranged for one guitar.

   80 bpm
Intro
4/4              3/4            4/4                           vib.
|----------------|--------------|-----------------|-0----------------|
|----------------|--------------|-----------------|-0--------16------|
|--9-------------|--------------|-5/(10)-(10)\----|-4-6-7-9/---------|
|--9------4/-9-9\|\(8)-9\-------|-----------------|------------------|
|--7---------7---|--------1-1-1-|-3/(8)---(8)\----|-2----------------|
|--0--0-0-2/-7-7\|\(6)-7\-1-1-1-|-----------------|--------------0-0-|
|  q  e e e  e q   (q) q  s s e   s (q..) (h)       e e e e  q   e e
|     PM-|                PM---|                                 PM-|
|4/4             3/4            4/4
|----------------|--------------|-----------------|------------------|
|----------------|--------------|-----------------|------------------|
|----------------|--------------|-----------------|------------------|
|-2--------------|-(2)----------|-3-------(3)\----|------------------|
|-2--------------|-(2)----------|-3-------(3)\----|-2-4-5-5--8-------|
|-0--------------|-(0)----1-1-1-|-1-------(1)\----|-0-2-3-3--6---0-0-|
  w                (h)    s s e   h       (h)       e e e e  q   e e
                          PM---|                                 PM-|

both guitars                   vib.
|---------------------------------|-----------------------------------|
|---------------------------------|-----------------------------------|
|-8/(9)\(8)-----------------------|-------------8/(9)\(8)\------------|
|---------------------------------|-----------------------------------|
|-6/(7)\(6)p(0)-8/(9)-(9)\-4-9-5--|-(0)-(0)-(0)-6/(7)\(6)\-8/(9)-(9)\-|
|---------------6/(7)-(7)\-2-7-6--|--0---0---0-------------6/(7)-(7)\-|
  s (s) (s) (s) s (e) (s)  e e q     q   e   e  s (s) (e)  s (e) (s)
                                     PM-------|

2/4
|---------|    Play these seven measures again for verse 1  :
|---------|         Lies
|-6/(7)-7-|         And you fill their souls
|---------|         with all oppressions of this world
|-4/(5)-5-|         And all the glory you receive
|---------|
| e (e) q
|
|2/4
|---------|
|---------|
|---------|
|---------|
|-4/(5)---|
|-2/(3)-6-|
  e (e) q


Pre-chorus 1 & 2
4/4
 So what makes you supreme   Lies  And your crown is falling
|------------------|--------------------|------(7)----------|
|------------------|--------------------|-------------------|
|-9-9-11-12-11-----|--------------------|-------------------|
|--------------7-5-|-----------2/-9--9--|-9--8-----9--------|
|-7-7-9--10-9--5-3-|-9-4-4-2-2----10-10-|-10-9-----9--4-7-5-|
|-0----------------|-7-2-2-0-0----------|----------7--2-5-3-|
| q e e  e  e  e e   e e q s s e  e  e    e  s (s) q. e e e
|4/4
|------------------|--------------------|-------------------|
|------------------|--------------------|-------------------|
|------------------|--------------------|-------------------|
|-2-2-4--5--4--7-5-|-4------------------|----------4--------|
|--------------5-3-|-2-4-4--------------|----------2--4-7-5-|
|-0-0-2--3--2------|---2-2-0-0-0--3--3--|-3--2-x------2-5-3-|
  q e e  e  e  e e   e e q s s e  e  e    e  s s   q. e e e


  I offer fantasy      And you creator  blind with envy
|------------------|--------------------|------x--------|
|------------------|--------------------|------x--------|
|-9-9-11-12-11-----|--------------------|------x--------|
|--------------7-5-|-----------2/-9--9--|-9--8---9------|
|-7-7-9--10-9--5-3-|-9-4-4-2-2----10-10-|-10-9---9--4-7-|
|-0----------------|-7-2-2-0-0----------|--------7--2-5-|
| q e e  e  e  e e   e e q s s e  e  e    e  s s q. e q
|
|------------------|--------------------|---------------|
|------------------|--------------------|---------------|
|------------------|--------------------|---------------|
|-2-2-4--5--4--7-5-|-4------------------|--------4------|
|--------------5-3-|-2-4-4--------------|--------2--4-7-|
|-0-0-2--3--2------|---2-2-0-0-0--3--3--|-3--2-x----2-5-|
  q e e  e  e  e e   e e q s s e  e  e    e  s s q. e q


Chorus 1 & 2 :
 Let the children come to me  Their mother loves me so shall they
    full                1/2  1/2             1/2
    /\                  /   /\               |\
|---------------------------|----------------------------|
|---------------------------|-----------------------/10\-|
|---------------------------|-----------------------/10\-|
|---------------------------|-----------------------/10\-|
|---------------------------|----------------------------|
|-1-----(1)-0-1-0-2-0-1---2-|----(2)-0-1-0-1--(1)-2------|
  s (e) (s) e e e e s e   s (e.) (s) e e s e  (s) s  e.
                                    ( first time :e  e  )

 Woman bleeding ate my gifts  Men was close behind
   full                1/2   1/2
    /\                 /    /\
|---------------------------|------------------------------|
|---------------------------|------------------------------|
|---------------------------|------------------------------|
|---------------------------|------------------------------|
|---------------------------|------------------------------|
|-1-----(1)-0-1-0-2-0-1---2-|----(2)-0-1-0-0h1h2p1-3-3-3-3-|
  s (e) (s) e e e e s e   s (e.) (s) e e s t t s s s s s s
                                                   PM-----|

Just like a snake I'm slithering  Through my world divine  And like the cat
   I'm stalking  I'll take your soul and you'll be like

  Repeat last four measures for rest of chorus


  me                   In emptiness
  vib.                 PH.      vib.
|-----------------------------|----------------------------------|
|-----------------------------|----------------------------------|
|-----------------------------|----------------3/(4)---3/(4)\(3)-|
|-----------------------------|----------------------------------|
|--------4/(5)---4-----3------|--------4/(5)---4/(5)---4/(5)\(4)-|
|-2--0-0-2/(3)-0-2-0-0-1--0-0-|-2--0-0-2/(3)-0-2/(3)-0-2/(3)\(2)-|
  q  s s s (s) s s s s e  s s   q  s s s (s) s s (s) s s (e) (s)
     PM-|      PM  PM-|   PM-|     PM-|      PM      PM

                        In emptiness
  vib.                 PH.     vib.
|-----------------------------|----------------------------------|
|-----------------------------|----------------------------------|
|-----------------------------|----------------3/(4)---3/(4)\(3)-|
|-----------------------------|----------------------------------|
|--------4/(5)---4-----3------|--------4/(5)---4/(5)---4/(5)\(4)-|
|-2--0-0-2/(3)-0-2-0-0-1--0-0-|-2--0-0-2/(3)-0-2/(3)-0-2/(3)\(2)-|
  q  s s s (s) s s s s e  s s   q  s s s (s) s s (s) s s (e) (s)
     PM-|      PM  PM-|   PM-|     PM-|      PM      PM

  vib.
|------------------------|
|------------------------|
|------------------------|
|------------------------|
|--------4/(5)---4---3---|
|-2--0-0-2/(3)-3-2-3-1---|
  q  s s s (s) s e s e E
     PM-|      PM  PM

Play all this again, except for this last measure !
Play this on the fourth measure of the Intro and Verse 2.
               vib.
|--------------------------|
|-14-----------------------|
|-14-----------20----------|
|----11-12-14/-------------|
|------------------(0)-(0)-|
|-------------------0---0--|
  e  e  e  e   q    e   e
                   PM-----|


  vib.                 PH.
|--------------------------||
|--------------------------||
|--------------------------||
|--------------------------||
|--------4/(5)---4-----3---||
|-2--0-0-2/(3)-0-2-0-0-1---||
  q  s s s (s) s s s s q

 Interlude
|---------------------------------------------------|
|---------------------------6---8---9---8-----9\(8)-|
|-2-------------------------------------------------|
|-3-2-2-2-2-2-2-2-2-3-5-3-3-3-5-5-6-6-5-5---6-6\(5)-|
|---------------------------------------------------|
|-1-0-0-0-0-0-0-0-0-1-3-1-1---3---4---3-----4-------|
  e t t t t t t t t s s t t s t s t s t t T t t (t)

|----------------------------------------------|
|---------------------------6---6---8---8---8--|
|-2--------------------------------------------|
|-3-2-2-2-2-2-2-2-2-3-5-3-3-3-3-3-5-5-5-5---5--|
|----------------------------------------------|
|-1-0-0-0-0-0-0-0-0-1-3-1-1---1---3---3--------|
  e t t t t t t t t s s t t s t s t s t t T s.

|---------------------------------------------------|
|---------------------------6---8---9---8-----9\(8)-|
|-2-------------------------------------------------|
|-3-2-2-2-2-2-2-2-2-3-5-3-3-3-5-5-6-6-5-5---6-6\(5)-|
|---------------------------------------------------|
|-1-0-0-0-0-0-0-0-0-1-3-1-1---3---4---3-----4-------|
  e t t t t t t t t s s t t s t s t s t t T t t (t)

|----------------------------------------------|
|---------------------------6---6---8---8---8--|
|-2--------------------------------------------|
|-3-2-2-2-2-2-2-2-2-3-5-3-3-3-3-3-5-5-5-5---5--|
|----------------------------------------------|
|-1-0-0-0-0-0-0-0-0-1-3-1-1---1---3---3--------|
  e t t t t t t t t s s t t s t s t s t t T s.

|---------------------------------------------------|
|---------------------------------------------------|
|-----------2-8-10-----8---10---11---10-----11\(10)-|
|-5---------2---------------------------------------|
|-6-5-5-0-0-0-6-8--6-6---8----9----8------9---------|
|---------------------------------------------------|
  e t t t t e s s  t t s t s  t s  t t  T t t  (t)

|---------------------------------------||
|---------------------------------------||
|-----------7---8-10-----8---8---10-----||
|-5-------------------------------------||
|-6-5-5-0-0-5-0-6-8--6-6---6-----8------||
|---------------------------------------||
  e t t t t s s s s  t t s t t s q (...)
                                    ^play as long as you want

     54 bpm
  7/8                       4/4                        2 times
||--------------------------|-----------------------------||
||--------------------------|-----------------------------||
||-o-9-10-9/(10)-12-13\-----|-8-8\(7)-7-----------------o-||
||-o------------------------|---------------------------o-||
||---7-8--7/(8)--10-11\-----|-6-6\(5)-5-5\(2)-4---4-4-2---||
||----------------------0-0-|-----------6\(0)-5-0-5-5-3---||
     q e  s (s)  e  e   s s   q s (s) e s (s) e s s s s

 7/8                     5/8
|------------------------|-----------------|
|------------------------|-----------------|
|-9-10-9/(10)-12-13\-----|-8-8\(7)-7-------|
|------------------------|-----------------|
|-7-8--7/(8)--10-11\-----|-6-6\(5)-5-5\(2)-|
|--------------------0-0-|-----------6\(0)-|
  q e  s (s)  e  e   s s   q s (s) e s (s)


   Bow to me faithfully          Bow to me splendidly
 4/4                                               2 times  3/8
||----------------------------|---------------------------||------------|
||----------------5-----------|---------------------------||------------|
||-o-6---6----/9----8/(9)-----|-6---6----/9--9\)8)-8\---o-||-6---6-6----|
||-o--------------------------|-------------------------o-||------------|
||---4---4----/7--7-6/(7)-x-4-|-4---4----/7--7\(6)-6\-x---||-4---4-4-/7-|
||---5-5-5-5-5/8--8-7/(8)-x-5-|-5-5-5-5-5/8--8\(7)-7\-x---||-5-5-5-5----|
     e s s s s q  e s (s) s s   e s s s s q  s (s) e. s      e s s s  s
       PM  PM-|                   PM  PM-|                     PM

7/8                       4/4
|------------------------|---------------------------|
|------------------------|---------------------------|
|-9-10-9/(10)-12-13\-----|-8-8\(7)-7-----------------|
|------------------------|---------------------------|
|-7-8--7/(8)--10-11\-----|-6-6\(5)-5-5\(2)-4---4-4-2-|
|--------------------0-0-|-----------6\(0)-5-0-5-5-3-|
  q e  s (s)  e  e   s s   q s (s) e s (s) e s s s s

 7/8                     5/8
|------------------------|-----------------|
|------------------------|-----------------|
|-9-10-9/(10)-12-13\-----|-8-8\(7)-7-------|
|------------------------|-----------------|
|-7-8--7/(8)--10-11\-----|-6-6\(5)-5-5\(2)-|
|--------------------0-0-|-----------6\(0)-|
  q e  s (s)  e  e   s s   q s (s) e s (s)

   Bow to me faithfully          Bow to me splendidly
 4/4                                               2 times
||----------------------------|---------------------------||
||----------------5-----------|---------------------------||
||-o-6---6----/9----8/(9)-----|-6---6----/9--9\)8)-8\---o-||
||-o--------------------------|-------------------------o-||
||---4---4----/7--7-6/(7)-x-4-|-4---4----/7--7\(6)-6\-x---||
||---5-5-5-5-5/8--8-7/(8)-x-5-|-5-5-5-5-5/8--8\(7)-7\-x---||
     e s s s s q  e s (s) s s   e s s s s q  s (s) e. s
       PM  PM-|                   PM  PM-|

                                                play 7 times & fade
||----------------------------|---------------------------||
||----------------5-----------|---------------------------||
||-o-6---6----/9----8/(9)-----|-6---6----/9--9\(8)-8\---o-||
||-o--------------------------|-------------------------o-||
||---4---4----/7--7-6/(7)-x-4-|-4---4----/7--7\(6)-6\-x---||
||---5-5-5-5-5/8--8-7/(8)-x-5-|-5-5-5-5-5/8--8\(7)-7\-x---||
     e s s s s q  e s (s) s s   e s s s s q  s (s) e. s
       PM  PM-|                   PM  PM-|


                          The Bass Part
                          -------------

   80 bpm
Intro
4/4   3/4          4/4
|----|------------|----|-------------------|---------------------------|
|----|------------|----|-------------------|---------------------------|
|----|------------|----|---------1-1-1-----|-6/(7)\(6)-----------------|
|-0--|-(0)--1-1-1-|-1--|-0-2-3-3-------0-0-|-----------5-6/(7)--2-7-/6-|
  w    (h)  s s e   w    e e e e e s s e e   s (s) (s) s s (e.) e e  q

                       2/4
|----------------------|-------|
|----------------------|-------|
|-------6/(7)-6--------|-----1-|
|-0-0-0---------6/(7)--|-2-3---|
  q e e s (s) e s (e.)   e e q

Verse 1
4/4   3/4          4/4
|----|------------|----|-------------------|---------------------------|
|----|------------|----|-------------------|---------------------------|
|----|------------|----|---------1-1-1-----|-6/(7)\(6)-----------------|
|-0--|-(0)--1-1-1-|-1--|-0-2-3-3-------0-0-|-----------5-6/(7)--2-7-/6-|
  w    (h)  s s e   w    e e e e e s s e e   s (s) (s) s s (e.) e e  q

                       2/4
|----------------------|-------|
|----------------------|-------|
|-------6/(7)-6--------|-----1-|
|-0-0-0---------6/(7)--|-2-3---|
  q e e s (s) e s (e.)   e e q

Pre-chorus 1
4/4
|---------------|-----------------|--------------|
|---------------|-----------------|--------------|
|-----------5-3-|-2---------------|-----2--------|
|-0-0-2-3-2-----|---2-2-0-0-0-3-3-|-3-2----2-5-3-|
  q e e e e e e   e e q s s s e e   e e q. e e e

|---------------|-----------------|------------|
|---------------|-----------------|------------|
|-----------5-3-|-2---------------|-----2------|
|-0-0-2-3-2-----|---2-2-0-0-0-3-3-|-3-2----2-5-|
  q e e e e e e   e e q s s s e e   e e q. e q

Chorus 1
   full                1/2       1/2
   /\                  /        /\
|----------------------------|-----------------------|
|----------------------------|-----------------------|
|----------------------------|-----------------------|
|-1-----(1)-0-1-0-2-0-1----2-|-----(2)-0-1-0-0-0-0---|
  s (e) (s) e e e e s e    s  (e.) (s) e e e s s e E

   full                1/2       1/2
   /\                  /        /\
|----------------------------|-------------------------|
|----------------------------|-------------------------|
|----------------------------|-------------------------|
|-1-----(1)-0-1-0-2-0-1----2-|-----(2)-0-1-0---3-3-3-3-|
  s (e) (s) e e e e s e    s  (e.) (s) e e e E s s s s

   full                1/2       1/2
   /\                  /        /\
|----------------------------|-----------------------|
|----------------------------|-----------------------|
|----------------------------|-----------------------|
|-1-----(1)-0-1-0-2-0-1----2-|-----(2)-0-1-0-0-0-0---|
  s (e) (s) e e e e s e    s  (e.) (s) e e e s s e E

   full                1/2       1/2
   /\                  /        /\
|----------------------------|-------------------------|
|----------------------------|-------------------------|
|----------------------------|-------------------------|
|-1-----(1)-0-1-0-2-0-1----2-|-----(2)-0-1-0---3-3-3-3-|
  s (e) (s) e e e e s e    s  (e.) (s) e e e E s s s s

|--------------------------|------------------------------|
|--------------------------|------------------------------|
|--------------------------|------------------------------|
|-2--0-0-2h3-0-2-0-0-1-0-0-|-2--0-0-2-3-0-2-3-0-2/(3)\(2)-|
  q  s s s s s s s s e s s   q  s s s s s s s s s (e) (s)

|--------------------------|------------------------------|
|--------------------------|------------------------------|
|--------------------------|------------------------------|
|-2--0-0-2h3-0-2-0-0-1-0-0-|-2--0-0-2-3-0-2-3-0-2/(3)\(2)-|
  q  s s s s s s s s e s s   q  s s s s s s s s s (e) (s)

|----------------------||
|----------------------||
|----------------------||
|-2--0-0-2-3-3-2-3-1---||
  q  s s s s s e s e E

4/4   3/4          4/4
|----|------------|----|-------------------|---------------------------|
|----|------------|----|-------------------|---------------------------|
|----|------------|----|---------1-1-1-----|-6/(7)\(6)-----------------|
|-0--|-(0)--1-1-1-|-1--|-0-2-3-3-------0-0-|-----------5-6/(7)--2-7-/6-|
  w    (h)  s s e   w    e e e e e s s e e   s (s) (s) s s (e.) e e  q

                       2/4
|----------------------|-------|
|----------------------|-------|
|-------6/(7)-6--------|-----1-|
|-0-0-0---------6/(7)--|-2-3---|
  q e e s (s) e s (e.)   e e q

Verse 2
4/4   3/4          4/4
|----|------------|----|-------------------|---------------------------|
|----|------------|----|-------------------|---------------------------|
|----|------------|----|---------1-1-1-----|-6/(7)\(6)-----------------|
|-0--|-(0)--1-1-1-|-1--|-0-2-3-3-------0-0-|-----------5-6/(7)--2-7-/6-|
  w    (h)  s s e   w    e e e e e s s e e   s (s) (s) s s (e.) e e  q

                       2/4
|----------------------|-------|
|----------------------|-------|
|-------6/(7)-6--------|-----1-|
|-0-0-0---------6/(7)--|-2-3---|
  q e e s (s) e s (e.)   e e q

Pre-chorus 2
4/4
|---------------|-----------------|--------------|
|---------------|-----------------|--------------|
|-----------5-3-|-2---------------|-----2--------|
|-0-0-2-3-2-----|---2-2-0-0-0-3-3-|-3-2----2-5-3-|
  q e e e e e e   e e q s s s e e   e e q. e e e

|---------------|-----------------|------------|
|---------------|-----------------|------------|
|-----------5-3-|-2---------------|-----2------|
|-0-0-2-3-2-----|---2-2-0-0-0-3-3-|-3-2----2-5-|
  q e e e e e e   e e q s s s e e   e e q. e q

Chorus 2
   full                1/2       1/2
   /\                  /        /\
|----------------------------|-----------------------|
|----------------------------|-----------------------|
|----------------------------|-----------------------|
|-1-----(1)-0-1-0-2-0-1----2-|-----(2)-0-1-0-0-0-0---|
  s (e) (s) e e e e s e    s  (e.) (s) e e e s s e E

   full                1/2       1/2
   /\                  /        /\
|----------------------------|-------------------------|
|----------------------------|-------------------------|
|----------------------------|-------------------------|
|-1-----(1)-0-1-0-2-0-1----2-|-----(2)-0-1-0---3-3-3-3-|
  s (e) (s) e e e e s e    s  (e.) (s) e e e E s s s s

   full                1/2       1/2
   /\                  /        /\
|----------------------------|-----------------------|
|----------------------------|-----------------------|
|----------------------------|-----------------------|
|-1-----(1)-0-1-0-2-0-1----2-|-----(2)-0-1-0-0-0-0---|
  s (e) (s) e e e e s e    s  (e.) (s) e e e s s e E

   full                1/2       1/2
   /\                  /        /\
|----------------------------|-------------------------|
|----------------------------|-------------------------|
|----------------------------|-------------------------|
|-1-----(1)-0-1-0-2-0-1----2-|-----(2)-0-1-0---3-3-3-3-|
  s (e) (s) e e e e s e    s  (e.) (s) e e e E s s s s

|--------------------------|------------------------------|
|--------------------------|------------------------------|
|--------------------------|------------------------------|
|-2--0-0-2h3-0-2-0-0-1-0-0-|-2--0-0-2-3-0-2-3-0-2/(3)\(2)-|
  q  s s s s s s s s e s s   q  s s s s s s s s s (e) (s)

|--------------------------|------------------------------|
|--------------------------|------------------------------|
|--------------------------|------------------------------|
|-2--0-0-2h3-0-2-0-0-1-0-0-|-2--0-0-2-3-0-2-3-0-2/(3)\(2)-|
  q  s s s s s s s s e s s   q  s s s s s s s s s (e) (s)

|-----------------------||
|-----------------------||
|-----------------------||
|-2--0-0-2-3-0-2-0-0-1\-||
  q  s s s s s s s s q

Interlude
|-----------------------------------------------------|
|-----------------------------4---5---6---5-----------|
|-----------------------------------------------------|
|-1-0-0-0-0-0-0-0-0-1/(3)-1-1---4---4---3-----5-5\(3)-|
  e t t t t t t t t s (s) t t s t s t s t t T t t (t)

|------------------------------------------------|
|-----------------------------4---4---5---5---5--|
|------------------------------------------------|
|-1-0-0-0-0-0-0-0-0-1/(3)-1-1---1---1---3--------|
  e t t t t t t t t s (s) t t s t s t s t t T s.

|-----------------------------------------------------|
|-----------------------------4---5---6---5-----------|
|-----------------------------------------------------|
|-1-0-0-0-0-0-0-0-0-1/(3)-1-1---4---4---3-----5-5\(3)-|
  e t t t t t t t t s (s) t t s t s t s t t T t t (t)

|------------------------------------------------|
|-----------------------------4---4---5---5---5--|
|------------------------------------------------|
|-1-0-0-0-0-0-0-0-0-1/(3)-1-1---1---1---3--------|
  e t t t t t t t t s (s) t t s t s t s t t T s.

|-------------------------------------------|
|-------------------------------------------|
|-6-5-5-------6-8-6-6-6-8-8-9-9-8-8---9-9-8-|
|-------5-5-5-------------------------------|
  e t t t t e s s t t s t s t s t t T t t t

|-------------------------------------||
|-------------------------------------||
|-6-5-5-----5---6-8-6-6-6-6-6---8-----||
|-------5-5---5-----------------------||
  e t t t t s s s s t t s t t S q (...)
                                   ^ hold longer

    54 bpm
 7/8                     4/4                       2 times
||-----------------------|----------------------------||
||-o---------------------|--------------------------o-||
||-o-7-8-7/(8)-10-11-----|-/6-6\(5)-5---------3-3---o-||
||-------------------0-0-|------------6-3-5-5-----3---||
     q e s (s) e  e  s s    q s (s) e s s e s s s s

 7/8                   5/8
|---------------------|---------------|
|---------------------|---------------|
|-7-8-7/(8)-10-11-----|-6-6\(5)-5-----|
|-----------------0-0-|-----------6-3-|
  q e s (s) e  e  s s   q s (s) e s s

  4/4                                                    2 times 3/8
||-----------------------------|-------------------------------||------------|
||-o---------------------------|-----------------------------o-||------------|
||-o-----------/3--3-2-3-(2)-0-|-----------3--3\(2)-2---(2)\-o-||---------/7-|
||---5-5-5-5-5-----------------|-5-5-5-5-5---------------------||-5-5-5-5----|
     e s s s s  q  e s s  s  s   e s s s s q  s (s) e.  (s)       e s s s  s

 7/8                 4/4
|-------------------|------------------------|
|-----------5-6-----|------------------------|
|-7-8-7/(8)---------|-/6-6p5-5---------------|
|---------------0-0-|----------6-3-5-3-8-8-3-|
  q e s (s) e e s s    q s s e s s e s s s s

 7/8                   5/8
|---------------------|---------------|
|---------------------|---------------|
|-7-8-7/(8)-10-11-----|-6-6\(5)-5-----|
|-----------------0-0-|-----------6-3-|
  q e s (s) e  e  s s   q s (s) e s s

  4/4                                                    2 times
||-----------------------------|-------------------------------||
||-o---------------------------|-----------------------------o-||
||-o-----------/3--3-2-3-(2)-0-|-----------3--3\(2)-2---(2)\-o-||
||---5-5-5-5-5-----------------|-5-5-5-5-5---------------------||
     e s s s s  q  e s s  s  s   e s s s s q  s (s) e.  (s)

                                                       play 7 times & fade
||-----------------------------|-------------------------------||
||-o---------------------------|-----------------------------o-||
||-o-----------/3--3-2-3-(2)-0-|-----------3--3\(2)-2---(2)\-o-||
||---5-5-5-5-5-----------------|-5-5-5-5-5---------------------||
     e s s s s  q  e s s  s  s   e s s s s q  s (s) e.  (s)



                         The Drum Part
                         -------------

I've notated the drums on six-line bars. The top line represents the
cymbal and crash-cymbals (C for cymbals and Cr for crash-cymbals). The
second line shows the ride-cymbals (R). The third line shows the hi-hat (H).
The fourth line the snare-drum (S). The fifth line all the toms (T), I did
not make a distintion between low, mid and high toms. The sixth line is
the bass-drums. If two drums are played together they're placed on top of
each other, as if they were 'chords'.
There are a few triplets in the drums, I've marked them with { 3 } under
the regular notelengths.


Intro 80 bpm

4/4  3/4      4/4
|-C-|---------|-C-------|------------------------------|
|---|---------|---R-R-R-|-R-------R-------R--------R-R-|
|---|---------|---------|------------------------------|
|---|---S-S-S-|---------|------------------------------|
|---|---T-T-T-|---------|----------------------T-T-T---|
|-B-|---B-B-B-|-B-------|-BBBBBBBBBBBBBBBBBBBB-------B-|
  w   H s s e   q q q q   tttttttttttttttttttt s s e e

                                               2/4
|-------------C-C-Cr----|----------------------|------------------|
|-R-R-R-R-R-------------|-R-R---R-R-R-R-R------|------------------|
|-----------H-----------|----------------------|------------------|
|-S---------S-----------|-S---------S---S------|------------------|
|-----------------------|-----------------TTTT-|-TTTTTTTTTTTTTTTT-|
|---B---B-------B-B-B-B-|---B-B-B-B---B--------|------------------|
  e s s e e s s e e s s   e s s e e e e e tttt   tttttttttttttttt

Verse 1
4/4  3/4      4/4
|-C-|---------|-C-------|------------------------------|
|---|---------|---R-R-R-|-R-------R-------R--------R-R-|
|---|---------|---------|------------------------------|
|---|---S-S-S-|---------|------------------------------|
|---|---T-T-T-|---------|----------------------T-T-T---|
|-B-|---B-B-B-|-B-------|-BBBBBBBBBBBBBBBBBBBB-------B-|
  w   H s s e   q q q q   tttttttttttttttttttt s s e e

                                               2/4
|-------------C-C-Cr----|----------------------|------------------|
|-R-R-R-R-R-------------|-R-R---R-R-R-R-R------|------------------|
|-----------H-----------|----------------------|------------------|
|-S---------S-----------|-S---------S---S-SSSS-|------------------|
|-----------------------|----------------------|-TTTTTTTTTTTTTTTT-|
|---B---B-------B-B-B-B-|---B-B-B-B---B--------|-BBBBBBBBBBBBBBBB-|
  e s s e e s s e e s s   e s s e e e e e tttt   tttttttttttttttt

Pre-chorus 1
4/4
|-C-----------------------|-----C-------------|-----C--C----------|
|-----R---R-R-R---R-R-R-R-|-R-----R-R-R-R-R---|-R-----------------|
|-------------------------|-------------------|-------------------|
|---------------S-S-----S-|---------------S-S-|---S------SS-------|
|-------------------------|---T---------------|------------TTTTTT-|
|-BBBBBBBBBBBBBB----B-B---|-B-B-B-B---B-------|-B---B--B-BBBBBBBB-|
  tttttttttttttts e e e e   e e q e s s e s s   e e q. e tttttttt
                              ^flam

|-C-----------------------|-----C-------------|-----C--C----------|
|-----R---R-R-R---R-R-R-R-|-------R-R-R-R-R---|-R-----------------|
|-------------------------|-------------------|-------------------|
|---------------S-S---S---|-S-------------S-S-|---S------SS-------|
|-------------------------|-------------------|------------TTTTTT-|
|-BBBBBBBBBBBBBB----B---B-|---B-B-B---B-------|-B---B--B-BBBBBBBB-|
  tttttttttttttts e e e e   e e q e s s e s s   e e q. e tttttttt


Chorus 1
|-C--------------------------------|---------------------------C-|
|-----R---R---R---R---R---R---R----|-R---R---R---R---R-----------|
|----------------------------------|-----------------------------|
|---------S---------------S--------|---------S-----------------S-|
|----------------------------------|---------------------T-T-T---|
|-BBBBBBBBBBBBBBBBBBBBBBBBBBBBBBBB-|-BBBBBBBBBBBBBBBBBBBB--------|
  tttttttttttttttttttttttttttttttt   tttttttttttttttttttts s e e

|----------------------------------|----------------------------------|
|-R---R---R---R---R---R---R---R----|-R---R---R---R---R---R---R--------|
|----------------------------------|----------------------------------|
|---------S---------------S--------|---------S---------------S--------|
|----------------------------------|-----------------------------T----|
|-BBBBBBBBBBBBBBBBBBBBBBBBBBBBBBBB-|-BBBBBBBBBBBBBBBBBBBBBBBBBBBBBBBB-|
  tttttttttttttttttttttttttttttttt   tttttttttttttttttttttttttttttttt

|-C--------------------------------|-------------------------------|
|-----R---R---R---R---R---R---R----|-R---R---R---R---R-------------|
|----------------------------------|-------------------------------|
|---------S---------------S--------|---------S-------------------S-|
|----------------------------------|---------------------T-T-T-T---|
|-BBBBBBBBBBBBBBBBBBBBBBBBBBBBBBBB-|-BBBBBBBBBBBBBBBBBBBB----------|
  tttttttttttttttttttttttttttttttt   tttttttttttttttttttts s s s e.
                                                         { 3 }

|----------------------------------|----------------------------------|
|-R---R---R---R---R---R---R---R----|-R---R---R---R---R---R------------|
|----------------------------------|----------------------------------|
|---------S---------------S--------|---------S------------------------|
|----------------------------------|-------------------------T---T----|
|-BBBBBBBBBBBBBBBBBBBBBBBBBBBBBBBB-|-BBBBBBBBBBBBBBBBBBBBBBBBBBBBBBBB-|
  tttttttttttttttttttttttttttttttt   tttttttttttttttttttttttttttttttt


|-C--------------------|-C------------------|-C------------------|
|----------------------|--------------------|--------------------|
|---H-H---H---H-H-H-H--|---H-H-H---H-H-H-H--|---H-H-H---H-H------|
|-------S---S-S-S---S--|-----S---------S----|-----S---------S----|
|----------------------|--------------------|-----------------M--|
|-B---B-----------B----|-B-----B-B---B---B--|-B-----B-B---B------|
  e e s s s s e e e e    e e e s s e e e e    e e e s s e e e e
                    ^flam                                   ^ ^flam

|-C-----------------C--|--------------------------||
|----------------------|--------------------------||
|---H-H-H---H-H---H----|-H-H----------------------||
|-----S-----------S----|-----S-----S-----S--------||
|----------------------|-------T-T---T-T---T-T-T--||
|-B-----B-B---B-BB--B--|-B------------------------||
  e e e s s e s tte e    e e s s s s s s s s e e


4/4   3/4      4/4
|-Cr-|---------|-Cr------|------------------------------|
|----|---------|---R-R-R-|-R-------R-------R--------R-R-|
|----|---------|---------|------------------------------|
|----|---S-S-S-|---------|------------------------------|
|----|---T-T-T-|---------|----------------------T-T-T---|
|-B--|---B-B-B-|-B-------|-BBBBBBBBBBBBBBBBBBBB-------B-|
  w    H s s e   q q q q   tttttttttttttttttttt s s e e

                                               2/4
|-------------C-C-Cr----|----------------------|------------------|
|-R-R-R-R-R-R-----------|-R-R---R-R-R-R-R------|------------------|
|-----------------------|----------------------|------------------|
|-S---------S-----------|-S---------S---S------|------------------|
|-----------------------|-----------------SSSS-|-TTTTTTTTTTTTTTTT-|
|---B---B-------B-B-B-B-|---B-B-B-B---B--------|------------------|
  e s s e e s s e e s s   e s s e e e e e tttt   tttttttttttttttt

Verse 2
4/4   3/4      4/4
|-Cr-|---------|-Cr------|------------------------------|
|----|---------|---R-R-R-|-R-------R-------R--------R-R-|
|----|---------|---------|------------------------------|
|----|---S-S-S-|---------|------------------------------|
|----|---T-T-T-|---------|----------------------T-T-T---|
|-B--|---B-B-B-|-B-------|-BBBBBBBBBBBBBBBBBBBB-------B-|
  w    H s s e   q q q q   tttttttttttttttttttt s s e e

                                               2/4
|-------------C-C-Cr----|----------------------|------------------|
|-R-R-R-R-R-------------|-R-R---R-R-R-R-R------|------------------|
|-----------H-----------|----------------------|------------------|
|-S---------S-----------|-S---------S---S------|------------------|
|-----------------------|-----------------TTTT-|-TTTTTTTTTTTTTTTT-|
|---B---B-------B-B-B-B-|---B-B-B-B---B---BBBB-|-BBBBBBBBBBBBBBBB-|
  e s s e e s s e e s s   e s s e e e e e tttt   tttttttttttttttt

Pre-chorus 2
4/4
|-C-----------------------|-----C-------------|-----C--C----------|
|-----R---R-R-R---R-R-R-R-|-R-----R-R-R-R-R---|-R-----------------|
|-------------------------|-------------------|-------------------|
|---------------S-S-----S-|---------------S-S-|---S------SS-------|
|-------------------------|-------------------|------------TTTTTT-|
|-BBBBBBBBBBBBBB----B-B---|-B-B-B-B---B-------|-B---B--B-BBBBBBBB-|
  tttttttttttttts e e e e   e e q e s s e s s   e e q. e tttttttt
                              ^flam

|-C-----------------------|-----C-------------|-----C--C----------|
|-----R---R-R-R---R-R-R-R-|-R-----R-R-R-R-R---|-R-----------------|
|-------------------------|-------------------|-------------------|
|---------------S-S-----S-|---------------S-S-|---S------SS-------|
|-------------------------|---T---------------|------------TTTTTT-|
|-BBBBBBBBBBBBBB----B-B---|-B-B-B-B---B-------|-B---B--B-BBBBBBBB-|
  tttttttttttttts e e e e   e e q e s s e s s   e e q. e tttttttt
                              ^flam

Chorus 2
|-C--------------------------------|-----------------------------C-|
|-----R---R---R---R---R---R---R----|-R---R---R---R---R-------------|
|----------------------------------|-------------------------------|
|---------S---------------S--------|---------S-------------------S-|
|----------------------------------|---------------------T-T-T-T---|
|-BBBBBBBBBBBBBBBBBBBBBBBBBBBBBBBB-|-BBBBBBBBBBBBBBBBBBBB----------|
  tttttttttttttttttttttttttttttttt   tttttttttttttttttttts s s s e.
                                                         { 3 }

|----------------------------------|----------------------------------|
|-R---R---R---R---R---R---R---R----|-R---R---R---R---R---R---R--------|
|----------------------------------|----------------------------------|
|---------S---------------S--------|---------S---------------S--------|
|----------------------------------|-----------------------------T----|
|-BBBBBBBBBBBBBBBBBBBBBBBBBBBBBBBB-|-BBBBBBBBBBBBBBBBBBBBBBBBBBBBBBBB-|
  tttttttttttttttttttttttttttttttt   tttttttttttttttttttttttttttttttt

|-C--------------------------------|-----------------------------C-|
|-----R---R---R---R---R---R---R----|-R---R---R---R---R-------------|
|----------------------------------|-------------------------------|
|---------S---------------S--------|---------S-------------------S-|
|----------------------------------|---------------------T-T-T-T---|
|-BBBBBBBBBBBBBBBBBBBBBBBBBBBBBBBB-|-BBBBBBBBBBBBBBBBBBBB----------|
  tttttttttttttttttttttttttttttttt   tttttttttttttttttttts s s s e.
                                                         { 3 }

|----------------------------------|----------------------------------|
|-R---R---R---R---R---R---R---R----|-R---R---R---R---R---R------------|
|----------------------------------|----------------------------------|
|---------S---------------S--------|---------S------------------------|
|----------------------------------|-------------------------T---T----|
|-BBBBBBBBBBBBBBBBBBBBBBBBBBBBBBBB-|-BBBBBBBBBBBBBBBBBBBBBBBBBBBBBBBB-|
  tttttttttttttttttttttttttttttttt   tttttttttttttttttttttttttttttttt


|-C--------------------|-C--------------------|-C------------------|
|----------------------|----------------------|--------------------|
|---H-H---H---H-H-H-H--|---H-H-H---H-H---H-H--|---H-H-H---H-H------|
|-------S---S-S-S---S--|-----S-----------S----|-----S---------S----|
|----------------------|----------------------|-----------------M--|
|-B---B-----------B----|-B-----B-B---B-BB--B--|-B-----B-B---B------|
  e e s s s s e e e e    e e e s s e s tte e    e e e s s e e e e
                    ^flam                                     ^ ^flam

|-C-----------------C--|-C---------------C---||
|----------------------|---------------------||
|---H-H-H---H-H---H----|---H-H---H---H-H-----||
|-----S-----------S----|-------S---S-S-S-----||
|----------------------|---------------------||
|-B-----B-B---B-BB--B--|-B---B-----------B---||
  e e e s s e s tte e    e e s s s s e e q
                                         ^keep cymbal short

Interlude
|-C-----------------------|-C-----------------------|
|-------------------------|-------------------------|
|---H-H---H-H---H---H---H-|---H-H---H-H---H---H-----|
|-----S-------------S-----|-----S-------------S---S-|
|-------------------------|-------------------------|
|-B-----B-B---B---B---B---|-B-----B-B---B-B-B---B---|
  e e s s e s s s s s s e   e e s s e s s s s s s e
                                                  ^flam

|-C------------------------|-C---------------------|
|--------------------------|-----------------------|
|---H-H---H-H---H---H---H--|---H-H---H-H-H---H-----|
|-----S-------------S------|-----S-----------S-----|
|--------------------------|---------------------T-|
|-B-----B-B---B---BB--B----|-B-----B-B---B-B---B---|
  e e s s e s s s tts s e    e e s s e e s s s s e

|-C------------------------|-C--------------------||
|---R-R---R-R---R---R---R--|---R-R---R-R----------||
|--------------------------|----------------------||
|-----S-------------S------|-----S----------------||
|--------------------------|---------------T-T----||
|-B-----B-B---B---BB--B----|-B-----B-B---BB-------||
  e e s s e s s s tts s e    e e s s e s tte q
                                             ^hold longer for tempo change

  slower 54 bpm
7/8                   4/4                   7/8
|-C-------------------|-C---------C---------|-C-------------------|
|---------------------|---------------------|---------------------|
|---H-H-H---H-H-------|---H-H-H-H---H-------|---H-H-H---H-H-------|
|-----S---------S-S-S-|-----S---S-------S---|-----S---------S-----|
|---------------------|-------------------T-|-----------------T-T-|
|-B-------B-B---------|-B-----B---B-B-B-----|-B-------B-B---------|
  e e e s s e s s s s   e e e e e e s s s s   e e e s s e s s s s

4/4                   7/8                   5/8
|-C---------C---------|-C-------------------|-C-----------||
|---------------------|---------------------|-------------||
|---H-H-H-H---H-------|---H-H-H---H-H-------|---H-H-H-----||
|-----S---S-----S-----|-----S---------S-----|-----S---S-S-||
|-----------------T-T-|-----------------T-T-|-------------||
|-B-----B---B-B-------|-B-------B-B---------|-B-----B-----||
  e e e e e e s s s s   e e e s s e s s s s   e e e e s s

4/4  Bow to me ......
|-C-------------------|-C---------C---------------|-C-------------------|
|---R---R---R-R-R-R-R-|---R---------R-R---R---R---|---R-------R-R-R-R-R-|
|---------------------|---------------------------|---------------------|
|-------S---------S---|-------------------S---S---|-----S-----------S---|
|---------------------|-------T-T-----------------|-------T-T-----------|
|-B---B---B---B-B-----|-B---B-----B---B-B---B---B-|-B-B-------B---B-----|
  e s s s s e e e e e   e s s s s e e s s s s s s   e s s s s e e e e e

                            3/8
|-C---------C---------------|-C---------||
|---R---------R-R---R---R---|---R-------||
|---------------------------|-----------||
|-------------------S---S---|-----------||
|-------T-T-----------------|-----T-T-T-||
|-B---B-----B---B-B---B---B-|-B-B-------||
  e s s s s e e s s s s s s   e s s s s

7/8                   4/4                   7/8
|-C-------------------|-C---------C---------|-C-------------------|
|---------------------|---------------------|---------------------|
|---H-H-H---H-H-------|---H-H-H-H---H-----H-|---H-H-H---H-H-------|
|-----S---------S-----|-----S---S-----S-----|-----S---------------|
|-----------------T-T-|-----------------T---|---------------T-T-T-|
|-B-------B-B---------|-B-----B---B-B-------|-B-------B-B---------|
  e e e s s e s s s s   e e e e e e s s s s   e e e s s e s s s s

5/8
|-C-----------||
|-------------||
|---H-H-H-----||
|-----S---S-S-||
|-------------||
|-B-----B-----||
  e e e e s s

4/4  Bow to me ......
|-C-------C-C---------|-C---------C---------------|
|---R---R-----R-R-R-R-|---R---------R-R---R---R---|
|---------------------|---------------------------|
|-------S---------S---|-------------------S---S---|
|---------------------|-------T-T-----------------|
|-B---B---B---B-B---B-|-B-B-------B---B-B---B---B-|
  e s s s s e e e e e   e s s s s e e s s s s s s


|-C----------C-------------|-C---------C---------|
|---R---R------R-R---R---R-|-------------R-R-R-R-|
|--------------------------|---------------------|
|-------S------------S-----|-----------------S---|
|---------T--------------T-|---T-T-T-T-----------|
|-B---B------B-----B---B---|-B---------B---B-----|
  e s s t s. e e s s s s e   e s s s s e e e e e

||---C---------C---------------|-C-------C---------|-C---------C---------|
||---------------R-R-----------|---R-------R-R-R-R-|-------------R-R-R-R-|
||-o---------------------------|-------------------|---------------------|
||-o-------------------S---S---|---------------S---|-----------------S---|
||-----T-T-T-T-----------------|-----T-T-----------|---T-T-T-T-----------|
||---B---------B---B-B---B---B-|-B-B-----B---B---B-|-B---------B---B---B-|
     e s s s s e e s s s s s s   e e s s e e e e e   e s s s s e e e e e
                       ^   ^flam

                                       play 2 times & fade
|-C---------C---------------|-C-------C-----------||
|---R---------R-R-----------|---R-------R-R-R-R---||
|---------------------------|-------------------o-||
|-------------------S---S---|---------------S---o-||
|-------T-T-----------------|-----T-T-------------||
|-B-B-B-----B---B-B---B---B-|-B-B-----B---B---B---||
  e s s s s e e s s s s s s   e e s s e e e e e
                    ^   ^flam


Wilbert Pol.   wfpol@cs.ruu.nl



comments
print report bad tab
2 comments total.
0 reply
Death_Almighty wrote on January 6 2007, 03:43 pm

WOW...bass,guitar,AND DRUMS

I BOW TO YOU!!!

0 reply
cjdabest wrote on March 26 2011, 01:26 pm

What, in the drum tab, does "flam" mean? I don't play drums, but I'm transcribing this into a Finale file, to print the notes.
Also, GREAT JOB :D

I want to post or [tab]
guest
You may want to rate the tab now too:
select rating
Please do not post tabs as comments. Select "correction" instead!