Oops, an error
Loading. Please wait.

Feelings Tab

ver1
ver1

Whole song

Interactive

More versions @911Tabs.com
20,791 views 69 this week
no commentswrite comment
1 2 3 4 5
excellent!
x 3
Autoscroll
+/-
esc
set tempo
stop
Contributor
Tabbers playing skills
advanced
Hey! There's an official Ultimate Guitar app which is ideal
for learning songs when you're away from computer. Get the app
WARNING: You are trying to view
                                    content from Ultimate-Guitar.com
                                    in an unauthorized application,
                                    which is prohibited.

                                    Please use an official Ultimate
                                    Guitar Tabs application for iPhone,
                                    iPad or Android to access legitimate
                                    chords, guitar, bass, and drum tabs
                                    from Ultimate-Guitar.com database.

                                    Type "ultimate guitar tabs" in Apple
                                    App Store's or Android Market's
                                    search to find the application.
\---Song:-Feelings--------------------\
 \---Composer:-Morris-Albert-----------\
  \---Transcription-by:Christian Liang--\
  /---E-Mail:christian.liang@gmail.com--/
 /---http://www.classclef.com----------/
/---Enjoy!----------------------------/

==========================================================================
                  Feelings by Morris Albert (1951-)
==========================================================================

Key G 
Time 4/4
ABCDBDC

Part A

[1]                                                       
E|-----------------------------------|---------------------------2-------|
B|-----------1-------0---------------|---------------0---------0---------|
G|-----------0-------0-------2---0---|---2-------2-----------2-----------|
D|-------0-------0-------0-----------|-------2-------------1-------------|
A|-----------------------------------|---2---------------2---------------|
E|---3-------------------------------|-----------------------------------|
     |   |   |   |   |   |   |   |       |   |   |   |   |   |   |   |   
     |       |       |       |           |       |       |       | 
L    3       1               2           3   2   3       2 1 3   4
                                         1
                                           
     p   i   a   i   a   i   m   a       m   i   m   a   p p i m a 
             m       m                   p

     Feel-ings                                           Nothing more than
[3]                                                       / 3 \
E|---7---0---------------------------|-------------------------------0---|
B|---------------0---------------0---|-----------0-------5--7--8---------|
G|-----------0-------0-------0-------|-------0-------0-------------------|
D|-----------------------------------|-----------------------------------|
A|---7==================-7==========-|---6==============-6==============-|
E|-----------------------------------|-----------------------------------|
     |   |   |   |   |   |   |   |       |   |   |   |   |   |   |   |   
     |       |       |       |           |       |       |       | 
L    4                   2               2               1  3  4
     2                                                   2
R    a     m i   m   i   p   i   m       p   i   m   i   m  i  m     a  
     p

     Feelings                                            Trying to for
[5]                                                       / 3 \
E|---7-----0-------------------------|-------------------0--2--3-----0---|
B|---------------0---------------0---|-----------0-----------------------|
G|-----------0-------0-------0-------|-------0-------0-------------------|
D|-----------------------------------|-----------------------------------|
A|---5==================-5==========-|---4==============-4==============-|
E|-----------------------------------|-----------------------------------|
     |   |   |   |   |   |   |   |       |   |   |   |   |   |   |   |   
     |       |       |       |           |       |       |       | 
L    4                   1               3               3  1  2
     1 

R    a     m i   m   i   p   i   m       p   i   m   i   a  m  i 
                                                         p

     get     my                                          feelings of
[7]                                      V...............................
                                                         / 3 \   
E|---7---------------0---------------|------------------------5----------|
B|-----------0---------------0-------|---------------5---7--8--------7---|
G|-------0-------0-------0-------0---|-----------5-------5---------------|
D|-----------------------------------|-------7---------------------------|
A|-----------------------------------|---5==============-5==============-|
E|---8==============-8==============-|-----------------------------------|
     |   |   |   |   |   |   |   |       |   |   |   |   |   |   |   |   
     |       |       |       |           |       |       |       | 
L    1               2                   1   3   1   1   4  4  1     3
     2                                                   1
                                                         1

R    a   i   m   i   a   i   m   i       p   i   m   a   a  m  a     m
     p               p                                   m
                                                         p
     love
[9]                                      II............
E|---7-------------------------------|-----------------------------------|
B|---7---7-------0-------------------|---------------2-----------0---7---|
G|---7-------7-------0---------------|-----------2-----------------------|
D|---0-------------------0-----------|-------2---------------7-----------|
A|---------------------------2-------|-----------------------------------|
E|-------------------------------3---|---2==============-7==============-|
     |   |   |   |   |   |   |   |       |   |   |   |   |   |   |   |   
     |       |       |       |           |       |       |       | 
L    4   3   2               1   2       1   1   1   1   2   3       4
     3
     2

R    a   m   i   m   i   p   p   p       p   i   m   a   p   i   a   m
     m
     i
     p

     Tear-drops                                          roll-ing down on
[11]                                                      / 3 \   
E|---7---0---------------------------|-------------------------------0---|
B|---------------0---------------0---|-----------0-------5--7--8---------|
G|-----------0-------0-------0-------|-------0-------0-------------------|
D|-----------------------------------|-----------------------------------|
A|---7==================-7==========-|---6==============-6==============-|
E|-----------------------------------|-----------------------------------|
     |   |   |   |   |   |   |   |       |   |   |   |   |   |   |   |   
     |       |       |       |           |       |       |       | 
L    4                   2               2               1  3  4
     2                                                   2

R    a     m i   m   i   p   i   m       p   i   m   i   m  i  m     a  
     p                                                   p

     my face                                             trying to for-
[13]                                                      / 3 \   
E|---7-----0-------------------------|-------------------0--2--3-----0---|
B|---------------0---------------0---|-----------0-----------------------|
G|-----------0-------0-------0-------|-------0-------0-------------------|
D|-----------------------------------|-----------------------------------|
A|---5==================-5==========-|---4==============-4==============-|
E|-----------------------------------|-----------------------------------|
     |   |   |   |   |   |   |   |       |   |   |   |   |   |   |   |   
     |       |       |       |           |       |       |       | 
L    4                   1               3               3  1  2
     1 

R    a     m i   m   i   p   i   m       p   i   m   i   a  m  i     m
                                                         p

     get             my                                  feelings of
[15] V3.............                                      / 3 \   
E|---7-----------5---3==============-|-------------------2--3--5---------|
B|---5-------5-------------------1---|-----------1-------1-----------7---|
G|---5---5-------------------0-------|-------2-------2---2-----------7---|
D|-----------------------2-----------|---0==============-0==============-|
A|---0===============----------------|-----------------------------------|
E|-----------------------------------|-----------------------------------|
     |   |   |   |   |   |   |   |       |   |   |   |   |   |   |   |   
     |       |       |       |           |       |       |       | 
L    3   1   1   1   4   2       1           2   1   2   3  4  1     3
     1                                                   1           2
     1                                                   2

R    a   i   m   a   m   p   i   m       p   i   m   i   a  m  a     m
     m                                                   m           i
     i                                                   i
     p                                                   p

     love
[17]
E|---7===============----------------|---------------0-------------------|
B|---7-------7-------0---------------|-----------3---------------0-------|
G|---7-----------7-------0-------0---|-------2---------------1-----------|
D|---0-----------------------0-------|-------------------------------0---|
A|-----------------------------------|---2===============----------------|
E|-----------------------------------|-------------------0==============-|
     |   |   |   |   |   |   |   |       |   |   |   |   |   |   |   |   
     |       |       |       |           |       |       |       | 
L    4       3   2                       2   3   4           1
     3
     2

R    a       m   i   m   i   p   i       p   i   m   a   p   m   a   i
     m
     i
     p

Part B

     Feel    -      lings                            for all my life I'll
[19]
E|---0-------------------------------|---------------0-------------------|
B|-----------1-----------1-----------|-----------1-------3---1---0---1---|
G|-------0-------0---0---------------|-------0---------------------------|
D|-----------------------------------|-----------------------------------|
A|---3==============-3-------3---2---|---0===============----------------|
E|-----------------------------------|-----------------------------------|
     |   |   |   |   |   |   |   |       |   |   |   |   |   |   |   |   
     |       |       |       |           |       |       |       | 
L    3       1       3   1   3   2               1       4   1       1

R    a   i   m   i   i   m   p   p       p   i   m   a   m   i   m   i
     p               p

     feel            it                              I wish I'd ne-ver
[21]
E|-----------------------0-----------|-----------------------------------|
B|---3---------------3-------3-------|-----------0---3---1---0-------0---|
G|---------------2---2-----------2---|-------1-------------------2-------|
D|-----------0-----------------------|-----------------------------------|
A|-------2-----------2---------------|-----------------------------------|
E|-----------------------------------|---0==============================-|
     |   |   |   |   |   |   |   |       |   |   |   |   |   |   |   |   
     |       |       |       |           |       |       |       | 
L    4   2       3   4       4   3           1       4   1       2
                     3
                     2

R    a   p   i   m   a   a   m   i       p   i   a   m   i   m   i   m
                     m
                     p

     met         you girl                         you'll nev-ver come a-
[23]
E|-----------------------------------|-----------------------------------|
B|---1==========-0---1==============-|---------------1---0---------------|
G|-----------2---------------2-------|-----------2-----------2---0---2---|
D|-------2---------------2-----------|-------0---------------------------|
A|---0==========---------------------|-----------------------------------|
E|-------------------3-----------3---|---2==============================-|
     |   |   |   |   |   |   |   |       |   |   |   |   |   |   |   |   
     |       |       |       |           |       |       |       | 
L    1   2   3       1   2   3   4       2       3   1       3       2  
                     4

R    a   i   m   a   a   i   m   p       p   i   m   a   m   i   m   i

     gain
[25]
E|-----------------------------------|-----------------------------------|
B|---0---------------0---------------|---------------0---------------0---|
G|---0-------0---------------0-------|-----------2---------------1-------|
D|---0---0-------0-------0-------0---|-------0---------------0-----------|
A|-----------------------------------|---2===============----------------|
E|---3==============================-|-------------------0==============-|
     |   |   |   |   |   |   |   |       |   |   |   |   |   |   |   |   
     |       |       |       |           |       |       |       | 
L    3                                   2       3               1

R    a   i   m   i   a   i   m   i       p   i   m   a   p   i   m   a
     m
     i
     p

Part C
     Feel    -      lings                        wo      wo      wo
[27]
E|---0---------------0---------------|-----------0-----------------------|
B|-----------1-----------------------|-----------1-------3-------1-------|
G|-------0-------0-------0-----------|-------0-------0-------0-------0---|
D|-----------------------------------|-------------------4======-2======-|
A|---3==============-3-------3---2---|---0===============----------------|
E|-----------------------------------|-----------------------------------|
     |   |   |   |   |   |   |   |       |   |   |   |   |   |   |   |   
     |       |       |       |           |       |       |       | 
L    3       1       3       3   2               1       2       1
                                                         3       2

R    a   i   m   i   a   i   p   p       p   i   a   i   m   i   m   i
     p               p                           m       p       p

     Feel    -      lings                        wo      wo      wo
[29]
E|-----------------------------------|-----------------------------------|
B|---3---------------3---------------|-----------3-------1-------0-------|
G|---2-------2-------0-------0-------|-------1-------1-------1-------1---|
D|-------0-------0-------0-----------|-------------------2======-2======-|
A|---2==============-2==============-|-----------------------------------|
E|-------------------------------2---|---0===============----------------|
     |   |   |   |   |   |   |   |       |   |   |   |   |   |   |   |   
     |       |       |       |           |       |       |       | 
L    4       3       4           2           1   4   1   2   1   3   1
     3               2                                   3
     2

R    a   i   m   i   a   i   m   p       p   i   m   i   m   i   m   i
     m               m                                   p       p
     p               p

     Feel        you                                 a - again to my
[31]
E|-----------------------------------|-----------------------------------|
B|---1---------------1---------------|---1-------------------------------|
G|---2-------2-------2-------2-------|---2-------2-----------0---2-------|
D|---2---2-----------2---2-----------|---0---0-------4---4---------------|
A|---0==========-0-------------------|-----------------------------------|
E|-------------------3==========-3---|---2===============----------------|
     |   |   |   |   |   |   |   |       |   |   |   |   |   |   |   |   
     |       |       |       |           |       |       |       | 
L    1   2   3       1   2   3   4       1       3   4   4       3
     3               3                   3
     2               2                   2
                     4

R    a   i   m   p   a   i   m   p       a   i   m   i   m   a   m
     m               m
     i               i
     p               p
     ____________________________________________________________________
    |1.
[33] arms                                                     Go to Part D
E|-----------------------------------|-----------------------------------|
B|---0-----------0---------------0---|---0-----------0---------------0---|
G|---2-------2-------2-------2-------|---2-------2-------2-------2-------|
D|---2---2---------------2-----------|---1---1---------------1-----------|
A|---2===============----------------|---2===============----------------|
E|-----------------------------------|-----------------------------------|
     |   |   |   |   |   |   |   |       |   |   |   |   |   |   |   |   
     |       |       |       |           |       |       |       | 
L    3   2   3       3   2   3           3   1   3       3   1   3
     2                                   1
     1                                   2

R    a   i   m   a   m   i   m   a       a   i   m   a   m   i   m   a
     m                                   m
     i                                   i
     p                                   p
     ____________________________________________________________________
    |2.
[35] arms                                                            Fine
E|-------------------------------3---|-------------------3==============-|
B|---0-----------0---1-------1-------|---------------0---0==============-|
G|---0-------0-----------0---2-------|-----------0-------0==============-|
D|-------0-----------2-------0-------|-------0---------------------------|
A|-----------------------------------|-----------------------------------|
E|---3==============-3-------3-------|---3==============-3==============-|
     |   |   |   |   |   |   |   |       |   |   |   |   |   |   |   |   
     |       |       |       |           |       |       |       | 
L    3               1       1   4       3               4
                     2       2                           3
                     3       3

R    a   i   m   a   a   m   a   a       p   p   i   m   a
     m               i       m                           m
     p               p       i                           i
                             p                           p

Part D
     Feel-lings                                       feel-ings like I've
[37]                                                        
E|-----------7---0-------------------|-------------------7---5---5-------|
B|---------------------------0-------|-----------0-------------------8---|
G|-------0---------------0-----------|-------0-------0-------------------|
D|-----------------------------------|-----------------------------------|
A|---7==============-7==========-7---|---6==============-6==============-|
E|-----------------------------------|-----------------------------------|
     |   |   |   |   |   |   |   |       |   |   |   |   |   |   |   |   
     |       |       |       |           |       |       |       | 
L    2       4       2           2       2               3   1   1   4
                                                         2

R    p   i   a   m   p   i   m   p       p   i   m   i   a   m   a   m
                                                         p

     never  -  lost you                            and feel-ings like I'll
[39]                                                     V3...............
E|---7-----------5---5---3p5---------|---------------0---7---5---5-------|
B|-----------0-------------------0---|---2---------------------------8---|
G|-------0-------------------0-------|---0-------0-----------------------|
D|---0===============----------------|---2---2---------------------------|
A|-----------------------------------|---0===============----------------|
E|-----------------------------------|-----------------------------------|
     |   |   |   |   |   |   |   |       |   |   |   |   |   |   |   |   
     |       |       |       |           |       |       |       | 
L    3           1   1   1p4             3   2           3   1   1   4
                                         2

R    a   i   m   a   m   a   i   m       a   i   m   a   m   i   m   i
     p                                   m
                                         i
                                         p
     nev     -    er have you  
[41] ......................
E|---7-----------5---5---------------|---------------2---2---3---5-------|
B|---5-------5-----------8/10-10-----|-----------1-------1---------------|
G|---5---5---------------------------|-------2-----------2---------------|
D|---5===============----------------|---0==============-0==============-|
A|-------------------------------0---|-----------------------------------|
E|-----------------------------------|-----------------------------------|
     |   |   |   |   |   |   |   |       |   |   |   |   |   |   |   |   
     |       |       |       |           |       |       |       | 
L    3   1   1   1   1   4 4 4               2   1   3   3   4   1
     1                                                   1
     1                                                   2
     1

R    a   i   m   a   m   i m i   p       p   i   m   a   a   m   a
     m                                                   m
     i                                                   i
     p                                                   p

[43]                                                    Go back to Part B
E|---7-------------------------------|---------------0-------------------|
B|---7-------7-------0---------------|-----------3---------------0-------|
G|---7-----------7-------0-------0---|-------2---------------1-----------|
D|---0===============--------0-------|-------------------------------0---|
A|-----------------------------------|---2===============----------------|
E|-----------------------------------|-------------------0==============-|
     |   |   |   |   |   |   |   |       |   |   |   |   |   |   |   |   
     |       |       |       |           |       |       |       | 
L    4       3   2                       2   3   4           1
     3
     2

R    a       m   i   m   i   p   i       p   i   m   a   p   m   a   i
     m
     i
     p

======
Legend
======
Left                       Right                   ___________
p = pull off               p = pulgar = thumb    |1.          = Ending 1
h = hammer on              i = indice = index     / 3 \       = Triplet
/ = slide                  m = medio = middle     
= = suspend/hold Note      a = anular = ring      
V3 = Barre at fret 5       
     bottom 3 strings


comments
We did not receive enough feedback on this tab! Please rate:
print report bad tab
1 2 3 4 5
I want to post or [tab]
guest
You may want to rate the tab now too:
select rating
Please do not post tabs as comments. Select "correction" instead!