Oops, an error
Loading. Please wait.

National Front Disco Bass Tab

668 views 1 this week
no commentswrite comment
1 2 3 4 5
excellent!
x 1
Autoscroll
+/-
esc
set tempo
stop
Contributor
Hey! There's an official Ultimate Guitar app which is ideal
for learning songs when you're away from computer. Get the app
WARNING: You are trying to view
                                    content from Ultimate-Guitar.com
                                    in an unauthorized application,
                                    which is prohibited.

                                    Please use an official Ultimate
                                    Guitar Tabs application for iPhone,
                                    iPad or Android to access legitimate
                                    chords, guitar, bass, and drum tabs
                                    from Ultimate-Guitar.com database.

                                    Type "ultimate guitar tabs" in Apple
                                    App Store's or Android Market's
                                    search to find the application.
The National Front Disco
Morrissey


Intro
G |--------------------------------|--------------------------------|
D |--------------------------------|--------------------------------|
A |--------------------------------|-----1---2---1---4-------2---1--|
E |-2-----------2---2--------------|-2------------------------------|

G |--------------------------------|--------------------------------|
D |--------------------------------|---------1---2---4-------2---1--|
A |-2-----------2---2--------------|-2---4--------------------------|
E |--------------------------------|--------------------------------|

G |--------------------------------|--------------------------------|
D |--------------------------------|--------------------------------|
A |-4-----------4---4--------------|-4---2---1---2---4-------2---1--|
E |--------------------------------|--------------------------------|

G |--------------------------------|---------4---3------------------|
D |--------------------------------|-----4---------------4----------|
A |-2-----------2---2--------------|-------------------------2------|
E |--------------------------------|--------------------------------|

Verse
G |--------------------------------|--------------------------------|
D |--------------------------------|--------------------------------|
A |-6---6---------------6----------|--------------------------------|
E |--------------------------------|-6---6---------------6----------|

G |--------------------------------|--------------------------------|
D |--------------------------------|--------------------------------|
A |--------------------------------|-4---4---------------4----------|
E |-7---7---------------7----------|--------------------------------|

G |--------------------------------|--------------------------------|
D |--------------------------------|--------------------------------|
A |-6---6---------------6----------|--------------------------------|
E |--------------------------------|-4---4---------------4----------|

G |--------------------------------|--------------------------------|
D |--------------------------------|--------------------------------|
A |--------------------------------|--------------------------------|
E |-2---2---------------2----------|-4---6-----------6---6---6---6--|

Pre-Bridge
G |--------------------------------|--------------------------------|
D |--------------------------------|--------------------------------|
A |-2---2---2---2---2---2---2---2--|-3---3---3---3---3---3---3---3--|
E |--------------------------------|--------------------------------|

G |--------------------------------|--------------------------------|
D |--------------------------------|--------------------------------|
A |-4---4---4---4---4---4---4---4--|-5---5---5---5---5---5---5---5--|
E |--------------------------------|--------------------------------|

Bridge
G |--------------------------------|--------------------------------|
D |--------------------------------|--------------------------------|
A |-6---6---6---6---6---6---6---6--|-8---8---8---8---8---8---8---8--|
E |--------------------------------|--------------------------------|

G |--------------------------------|--------------------------------|
D |--------------------------------|--------------------------------|
A |-9---9---9---9---9---9---9---9--|11--11---9---9---8---8---6---6--|
E |--------------------------------|--------------------------------|

Chorus
G |--------------------------------|--------------------------------|
D |--------------------------------|--------------------------------|
A |--------------------------------|--------------------------------|
E |-2---2---2---2---2---2---2---2--|-2---2---2---2---2---2---2---2--|

G |--------------------------------|--------------------------------|
D |--------------------------------|--------------------------------|
A |-4---4---4-------4---4---4------|-4---4---4-------4---4---4------|
E |--------------------------------|--------------------------------| 
Normal 2nd Bar
G |--------------------------------|--------------------------------|
D |--------------------------------|--------------------------------|
A |-4---4---2---2---1---1----------|-4---4---2---2---1---1----------|
E |-------------------------4---4--|-------------------------4---4--| Alternate 2nd Bar

G |--------------------------------|--------------------------------|
D |--------------------------------|--------------------------------|
A |--------------------------------|--------------------------------|
E |-2---2---2---2---2---2---2---2--|-2---2---2---2---2---2---2---2--|

G |--------------------------------|--------------------------------|
D |--------------------------------|--------------------------------|
A |-2---2--(2)--2---2---2--(2)--2--|-2---2---2---2--(2)--2---2---2--|
E |--------------------------------|--------------------------------|

G |--------------------------------|--------------------------------|
D |--------------------------------|--------------------------------|
A |-4---4---4---4---4---4---4---4--|-4---4---4---4---4---4---4---4--|
E |--------------------------------|--------------------------------|

G |--------------------------------|--------------------------------|
D |--------------------------------|--------------------------------|
A |-2---2---2---2---2---2---2---2--|-2---2---2-------1--------------|
E |--------------------------------|-------------------------4------|

Outro A
G |--------------------------------|--------------------------------|
D |--------------------------------|--------------------------------|
A |---------1---1---2---2---4---4--|---------1---1---2---2---4---4--|
E |-2---2--------------------------|-2---2--------------------------|

G |--------------------------------|--------------------------------|
D |-----------------1---1---2---2--|-4---4---2---2---1---1---4---4--|
A |-2---2---4---4------------------|--------------------------------|
E |--------------------------------|--------------------------------|

G |--------------------------------|--------------------------------|
D |--------------------------------|--------------------------------|
A |-4---4---2---2---1---1---2---2--|-4---4---2---2---1---1---4---4--|
E |--------------------------------|--------------------------------|

G |--------------------------------|--------------------------------|
D |--------------------------------|-9-------8-------6--------------|
A |-2---2---4---4---6---6---9---9--|--------------------------------|
E |--------------------------------|--------------------------------|

[03:04] Outro B
G |--------------------------------|--------------------------------|
D |--------------------------------|--------------------------------|
A |---------1---1---2---2---4---4--|---------1---1---2---2---4---4--|
E |-2---2--------------------------|-2---2--------------------------|

G |--------------------------------|-----4-------6-------7-------8--|
D |-----------------1---1---4---4--|--------------------------------|
A |-2---2---4---4------------------|-2-------4-------5-------6------|
E |--------------------------------|--------------------------------|

G |--------------------------------|--------------------------------|
D |---------3---3---4---4---6---6--|---------3---3---4---4---6---6--|
A |-4---4--------------------------|-4---4--------------------------|
E |--------------------------------|--------------------------------|

G |--------------------------------|--------------------------------|
D |---------1---1---2---2---4---4--|---------1---1---2---2---4------|
A |-2---2--------------------------|-2----2-------------------------|
E |--------------------------------|--------------------------------|

[03:18] 
G |--------------------------------|--------------------------------|
D |--------------------------------|--------------------------------|
A |---------1---1---2---2---4---4--|---------1---1---2---2---4---4--|
E |-2---2--------------------------|-2---2--------------------------|

G |--------------------------------|--------------------------------|
D |-----------------1---1---2---2--|-4---4---2---2---1---1----------|
A |-2---2---4---4------------------|-------------------------4---4--|
E |--------------------------------|--------------------------------|

G |--------------------------------|--------------------------------|
D |--------------------------------|--------------------------------|
A |-4---4---4---4---4---4---4---4--|-4---4---2---2---1---1---4---4--|
E |--------------------------------|--------------------------------|

G |--------------------------------|--------------------------------|
D |---------1---1---2---2---4---4--|---------1---1---2---2---4------|
A |-2---2--------------------------|-2---2--------------------------|
E |--------------------------------|--------------------------------|

[03:31]
G |--------------------------------|--------------------------------|
D |--------------------------------|--------------------------------|
A |---------1---1---2---2---4---4--|---------1---1---2---2---4---4--|
E |-2---2--------------------------|-2---2--------------------------|

G |--------------------------------|-----4-------6-------7-------8--|
D |-----------------1---1---4---4--|--------------------------------|
A |-2---2---4---4------------------|-2-------4-------5-------6------|
E |--------------------------------|--------------------------------|

G |--------------------------------|--------------------------------|
D |---------3---3---4---4---6---6--|---------3---3---4---4---6---6--|
A |-4---4--------------------------|-4---4--------------------------|
E |--------------------------------|--------------------------------|

G |--------------------------------|--------------------------------|
D |---------1---1---2---2---4---4--|---------1---1---2---2---4---4--|
A |-2---2--------------------------|-2---2--------------------------|
E |--------------------------------|--------------------------------|

[03:44]
G |--------------------------------|--------------------------------|
D |--------------------------------|--------------------------------|
A |---------1---1---2---2---4---4--|-4---4---2---2---1---1---4---4--|
E |-2---2--------------------------|--------------------------------|

G |--------------------------------|--------------------------------|
D |--------------------------------|--------------------------------|
A |-2---2---4---4---2---2---1---1--|-2---2---1---1---2---2---4---4--|
E |--------------------------------|--------------------------------|

G |--------------------------------|--------------------------------|
D |--------------------------------|--------------------------------|
A |-4---4---4---4---4---4---4---4--|-4---4---4---4---4---4---4---4--|
E |--------------------------------|--------------------------------|

G |--------------------------------|--------------------------------|
D |--------------------------------|--------------------------------|
A |-2---2---2---2---2---2---2---2--|-2---2---2-------1--------------|
E |--------------------------------|-------------------------4------|

[03:58]
G |--------------------------------|--------------------------------|
D |-----------------4---4--2---2---|--------------------------------|
A |---------2---2------------------|-4---4---2---2---2---2---2---2--|
E |-2---2--------------------------|--------------------------------|

G |---------4---4---2---2----------|--------------------------------|
D |-4---4------------------4---4---|-2---2---4----------------------|
A |--------------------------------|-------------2---4---4---4---4--|
E |--------------------------------|--------------------------------|

G |--------------------------------|--------------------------------|
D |--------------------------------|--------------------------------|
A |-4---4---4---4---4---4---4---4--|-4---4---4---4---2---2---2---2--|
E |--------------------------------|--------------------------------|

G |---------------------2---4---2--|--------------------------------|
D |-----------------4--------------|-4---2--------------------------|
A |-2---2---2---2------------------|---------4---2------------------|
E |--------------------------------|--------------------------------|

G |--------------------------------|
D |--------------------------------|
A |--------------------------------|
E |-2---2---2---2------------------|


 


Order:
[00:04] Intro
[00:17] Verse
[00:31] Pre-Bridge (Where is our boy)
[00:37] Bridge
[00:44] Chorus

[01:04] Verse
[01:18] Pre-Bridge (Where is our boy)
[01:25] Bridge
[01:31] Chorus Use Alternate 2nd Bar
[01:51] Outro A

[02:05] Verse
[02:18] Pre-Bridge (You're Mum Says...)
[02:24] Bridge
[02:31] Chorus (You want the day to come sooner)
[02:51] Outro A (Oh, The National...)
[03:04] Outro By
comments
We did not receive enough feedback on this tab! Please rate:
print report bad tab
1 2 3 4 5
I want to post or [tab]
guest
You may want to rate the tab now too:
select rating
Please do not post tabs as comments. Select "correction" instead!