Oops, an error
Loading. Please wait.

Bone China Tab

4,220 views 17 this week
no commentswrite comment
1 2 3 4 5
excellent!
x 3
Autoscroll
+/-
esc
set tempo
stop
Difficulty
intermediate
WARNING: You are trying to view
                                    content from Ultimate-Guitar.com
                                    in an unauthorized application,
                                    which is prohibited.

                                    Please use an official Ultimate
                                    Guitar Tabs application for iPhone,
                                    iPad or Android to access legitimate
                                    chords, guitar, bass, and drum tabs
                                    from Ultimate-Guitar.com database.

                                    Type "ultimate guitar tabs" in Apple
                                    App Store's or Android Market's
                                    search to find the application.
Author/Artist: Mother love bone
Title: Bone china
Transcribed by: Sean

-|-------------------------------------------------------------------------|
-|---------6p5---6p5---5-6-5----------------6p5----------------------------|
-|-5h7-7-7-----7-----7-------7-5----5h7-7-7-----7-5------------------------|
-|-0--------------------------------0--------------------------------------|
-|-------------------------------------------------------------------------|
-|-------------------------------------------------------------------------|
   Intro

-|---------------------------------------------------10----------------10-|--|
-|------------------------------------------------------13----------13----|--|
-|---------------------------------------------------------10----10----------|
-|------------------------------------------------------------12----------|--|
-|------------------------------------------------------------------------|--|
-|------------------------------------------------------------------------|--|
   G2                                      Only first time

-|-------------------------------------------------------------------------|
-|---------6p5---6p5---5-6-5----------------6p5----------------------------|
-|-5h7-7-7-----7-----7-------7-5----5h7-7-7-----7-5------------------------|
-|-0--------------------------------0--------------------------------------|
-|-------------------------------------------------------------------------|
-|-------------------------------------------------------------------------|
   Verse G1 only

-|-------------------------------------------------------------------------|
-|---------6p5---6p5---5-6-5----------------6p5----------------------------|
-|-5h7-7-7-----7-----7-------7-5----5h7-7-7-----7-5------------------------|
-|-0--------------------------------0--------------------------------------|
-|-------------------------------------------------------------------------|
-|-------------------------------------------------------------------------|
   End of the verse

-|---------------------------------------------------------------------|----|
-|---------------------------------------------------------------------|----|
-|---------------------------------------------------------------------|----|
-|-------------------------------------------------------0-0-0-0-0-0-0-|----|
-|---------------------------------------------------------------------|----|
-|---------------------------------------------------------------------|----|
   G2 before chorus                                      PM ----------------|

Pre-chorus :
-|----------------------------------------------------|---------------------|
-|---------6p5---6p5---5-6-5-----------------6p5------|---------------------|
-|-5h7-7-7-----7-----7-------7-5-----5h7-7-7-----7-5--|---------------------|
-|-0---------------------------------0----------------|---------------------|
-|----------------------------------------------------|---------------------|
-|----------------------------------------------------|---------------------|

-|-------------------------------------------------------------|-------------|
-|-------------------------------------------------------------|-------------|
-|-------------------------------0-2-5-------------------------|-------------|
-|-10-12-12-12-12-12--0-0-0-0-0----------0-0-0-0-0-0-0-0-0-0--|--------------|
-|-------------------------------------------------------------|-------------|
-|-------------------------------------------------------------|-------------|
                       PM -------         PM---------------------------------|

-|-------------------------------------------------------------------------|
-|---------6p5---6p5---5-6-5-----------------------------------------------|
-|-5h7-7-7-----7-----7-------7-5--------------7-7-7-7-7-7-7-7-7-7-7-7-7-7--|
-|-0--------------------------------------0--------------------------------|
-|-------------------------------------------------------------------------|
-|-------------------------------------------------------------------------|

-|------------------------------------------------------------------------|--|
-|------------------------------------------------------------------------|--|
-|-------------------------------0-2-5------------------------------------|--|
-|-10-12-12-12-12-12-----0-0-0-----------0-0-0-0-0-0-0-0-0-0-0-0-0-0-0-0--|--|
-|------------------------------------------------------------------------|--|
-|------------------------------------------------------------------------|--|
                          PM ---          PM---------------------------------|

Chorus :
-|----------------------------------------------------|---------------------|
-|-3----------------------------3---------------------|---------------------|
-|-2----------------------------2---------------------|---------------------|
-|-0----------------------------0---------------------|---------------------|
-|----------------------------------------------------|---------------------|
-|----------------------------------------------------|---------------------|
    Electric

-|--------------5-------5-7-5---5---------------------|---------------------|
-|----------------7-----------8-----------------------|---------------------|
-|------------------7-5-------------------------------|---------------------|
-|----------------------------------------------------|---------------------|
-|----------------------------------------------------|---------------------|
-|----------------------------------------------------|---------------------|
   Acoustic

-|----------------------------------------------------|---------------------|
-|-3----------------------------3---------------------|---------------------|
-|-2----------------------------2---------------------|---------------------|
-|-0----------------------------0---------------------|---------------------|
-|----------------------------------------------------|---------------------|
-|----------------------------------------------------|---------------------|

-|--------------10------------7-5---------------------|---------------------|
-|-----------------10-------7-------------------------|---------------------|
-|--------------------7---7---------------------------|---------------------|
-|----------------------7-----------------------------|---------------------|
-|----------------------------------------------------|---------------------|
-|----------------------------------------------------|---------------------|

Bridge :
-|-------5----5------------3---------------2---3-2-0-0h2p0----------|-------|
-|-5---5--------5--------3---3-----------3-----------------3--------|-------|
-|---5------------5----3-------3-------2---------------------0----2-|-------|
-|------------------5----------------0--------------------------0---|-------|
-|------------------------------------------------------------------|-------|
-|------------------------------------------------------------------|-------|
   G1
-|-5----------------3----------------2------------------------------|-------|
-|-5----------------3----------------3------------------------------|-------|
-|-5----------------3----------------2------------------------------|-------|
-|-7----------------5----------------0------------------------------|-------|
-|------------------------------------------------------------------|-------|
-|------------------------------------------------------------------|-------|
   G2

-|-------5---5------------3---------------------------------------|---------|
-|-5---5-------5--------3---3-----------3-------------------------|---------|
-|---5-----------5----3-------3-----------------------------------|---------|
-|-----------------5----------------0-----------------------------|---------|
-|----------------------------------------------------------------|---------|
-|----------------------------------------------------------------|---------|

-|-5----------------3----------------2----------------------------|---------|
-|-5----------------3----------------3----------------------------|---------|
-|-5----------------3----------------2----------------------------|---------|
-|-7----------------5----------------0----------------------------|---------|
-|----------------------------------------------------------------|---------|
-|----------------------------------------------------------------|---------|
   G2

-|-------------------------------------------------------------------------|
-|---------6p5---6p5---5-6-5----------------6p5----------------------------|
-|-5h7-7-7-----7-----7-------7-5----5h7-7-7-----7-5------------------------|
-|-0--------------------------------0--------------------------------------|
-|-------------------------------------------------------------------------|
-|-------------------------------------------------------------------------|
   Second verse

-|-------------------------------------------------------------------------|
-|---------------------------------------------------5-----------5---------|
-|-----------------------------------------------------7-------7---7-------|
-|-------------------------------------------------------7---7-------------|
-|---------------------------------------------------------5---------------|
-|-------------------------------------------------------------------------|
   G2

-|-------------------------------------------------------------------------|
-|---------6p5---6p5---5-6-5----------------6p5----------------------------|
-|-5h7-7-7-----7-----7-------7-5----5h7-7-7-----7-5------------------------|
-|-0--------------------------------0--------------------------------------|
-|-------------------------------------------------------------------------|
-|-------------------------------------------------------------------------|
   End of the verse

-|---------------------------------------------------------------------|---|
-|-------------------------------------------------------10---10-------|---|
-|--------------------------------------------------------7----7-------|---|
-|---------------------------------------------------------------------|---|
-|---------------------------------------------------------------------|---|
-|---------------------------------------------------------------------|---|
   G2 before chorus

Then chorus like before.
comments
We did not receive enough feedback on this tab! Please rate:
1 2 3 4 5
I want to post or [tab]
guest
You may want to rate the tab now too:
select rating
Please do not post tabs as comments. Select "correction" instead!