Oops, an error
Loading. Please wait.

Captain Hi-Top Tab

742 views 1 this week
1 commentread comment
1 2 3 4 5
excellent!
x 1
Autoscroll
+/-
esc
set tempo
stop
Difficulty
intermediate
Hey! There's an official Ultimate Guitar app which is ideal
for learning songs when you're away from computer. Get the app
WARNING: You are trying to view
                                    content from Ultimate-Guitar.com
                                    in an unauthorized application,
                                    which is prohibited.

                                    Please use an official Ultimate
                                    Guitar Tabs application for iPhone,
                                    iPad or Android to access legitimate
                                    chords, guitar, bass, and drum tabs
                                    from Ultimate-Guitar.com database.

                                    Type "ultimate guitar tabs" in Apple
                                    App Store's or Android Market's
                                    search to find the application.
Author/Artist: Mother Love Bone
Title: Captain Hi-Top
Album: Stardog Champion
Transcribed by: Rick
Written For: http://www.giventowail.com

-|--------------------------------------------------------------------7--------|
-|----7--------------------------------------------------------7--------7------|
-|----9b11vv---9b11r9-7-9-7--/7-7-9p7---7-9p7---9b11r9p7-9----9b11-------------|
-|-------------------------------------9-------9-------------------------------|
-|-----------------------------------------------------------------------------|
-|-----------------------------------------------------------------------------|
   G1  Intro

-|----------------------------------------------------------------------------|
-|----------------------------------------------------------------------------|
-|----------------------------------------------------------------------------|
-|----9--------------------------------------------------------9--------------|
-|----9--------------------------------------------------------9--------------|
-|----7---7-7-7-7----7-7-7-7----7-7-7-7----7-7-7-7-------------7---7-7-7-7----|
   G2     | - - - - - - palm mute - - - - - - - -|                | - - p.m.

-|-----------------------------------------------------------------------------|
-|-----------------------------------------------------------------------------|
-|---r7-9p7-7h9p7--6h7p6--6h7p64-----------------------------------------------|
-|-----------------------------------------------------------------------------|
-|-----------------------------------------------------------------------------|
-|-----------------------------------------------------------------------------|
   G1

-|-----------------------------------------------------------------------------|
-|-----------------------------------------------------------------------------|
-|-----------------------------------------------------------------------------|
-|---------------------------------------------------9-----------9-------------|
-|---------------------------------------------------9-----------9-------------|
-|--7-7-7-7--7-7-7-7---7-7-7-7---7-7-7-7---7-7-7-7---7--7-7-7-7--7-------------|
   G2 - - - - - - - - - - - - - - - - - - - -|   I'm the instigator of ...

-|-----------------------------------------------------------------------------|
-|--0--------------------------------7-----------------------------------------|
-|--0---7-------9---9b10r9p7--------7------------------------------------------|
-|--0---7-------9---9b10r9p7--9--------9-7---------------------7h9-------------|
-|------5-------7-------------9------------9-8-7-5-8-7-5-------7h9-------------|
-|-----------------------------7--------------------------5-7---7--------------|
   G2 the official..                                            Scoff at

-|-----------------------------------------------------------------------------|
-|-------------------------------7----/---9--10--9-----------------------------|
-|-------------------------------7----/---9--9---9---9b10r9-7------7-----------|
-|------------------------9-----7----/---9--9---9---9b10r9-7--7h9---9----------|
-|------------------------9-----5----/---7--7---7------------------------------|
-|---7--7--7--7--7--7--7--7----------------------------------------------------|
   G2 off. cuz they ain't cool           & I made my own rules.

-|-----------------------------------------------------------------------------|
-|----------------------------------------------------------------------5------|
-|-------7---------7------7------------x---9---7-9--7-9-7----7--5-7p5----------|
-|---7h9---9---7h9----7h9---9-7-9-----x---9---9-9--9-9-9----7--------7---------|
-|-----------------------------------------7-----------------5-----------------|
-|-----------------------------------------------------------------------------|
   G2                                     :45

-|-----------------------------------------------------------------------------|
-|-----------------------------------------------------------------------------|
-|---/---x----------------------------------------------------9--7--9--7-9-----|
-|---/---x------9--------------------------------------9-----9--9--9--9-9------|
-|---------------9--------------------------------------9-----7----------------|
-|---------------7--7-7-7-7---7-7-7-7---7-7-7-7---7-7-7-7----------------------|
   G2

-|----------------------------------------------------------------------------|
-|-----------------13--12------10--10--9--------------------------------------|
-|--7-----/---12---12--12---9---9---9--9--------------------------------------|
-|--9-----/---12---12--12---9---9---9--9-------9------------------------------|
-|------------10------------7-------------/----9------------------------------|
-|---------------------------------------------7-7-7-7--7-7-7-7--7-7-7-7--7-7-|
   G2

-|-----------------------------------------------------------------------------|
-|-----------------------------------------------------------------------------|
-|---------------------------------------------------7-------9---9b10r9p7------|
-|----9----------9----------------------9----7h9---7-------9---9b10r9p7--------|
-|----9----------9----------------------9----7h9---5------7--------------------|
-|--7-7----------7----7--7--7--7--7--7--7--------------------------------------|
   G2             1:05

-|------------------------------------------19--------------------------------|
-|--17b19vvv--17p15-------------------------19--------------------------------|
-|------------------16----16-18-16--18b20vv-----------------------------------|
-|----------------------------------------------------------------------------|
-|----------------------------------------------------------------------------|
-|----------------------------------------------------------------------------|
   G1 1:13

-|-----------------------------------------------------------------------------|
-|-----------------------------------------------------------------------------|
-|-----------------------------------------------------------------------------|
-|--9-----------------9------------------------9------9--------------9---------|
-|--9-----------------9------------------------9------9--------------9---------|
-|--7--7--7--7--7--7--7---7--7--7--7--7--7--7--7-------7--7--7--7--7--7--------|
   G2 1:13

-|-----------------------------------------------------------------------------|
-|---------------------9--10--9------------------------------------------------|
-|-------------7------9--9---9---9b10r9p7------7--------7--------7-----7-------|
-|------7h9----7------9--9---9---9b10r9p7--7h9---9--7h9---9--7h9---7h9---9-----|
-|--/---7h9----5---------------------------------------------------------------|
-|-----------------------------------------------------------------------------|
   G2 1:21

-|--------------------------------5-------------------------------------------|
-|--------------------------------5-------------------------------------------|
-|----------9---9--7----5--9p5p5--5-------------------------------------------|
-|-7-9------9---9--9----7--7-------------------------------------9------------|
-|----------7-----------5--5-------------------------------------9------------|
-|----------------------------------/--7--7--7--7--7v--7--7-7-7--7------------|
   G2 1:29

-|----------------------------------------------------------------------------|
-|---------10--9--7--------13--12-------10-10-9-------------------------------|
-|---9------9--9--9----12--12--12----9---9--9-9------7-------7-------7-----7--|
-|---9-----------------12------------9-----------7h9---9-7h9---9-7h9---7h9----|
-|---7-----------------10------------7----------------------------------------|
-|----------------------------------------------------------------------------|
   G2                                           1:45

-|-----------------------------------------------------------------------------|
-|-----------------------------------------------------------------------------|
-|---------------7--------7-------7-----7-------------7--------7--------7------|
-|-9-7-9----7h9---9--7h9---9-7h9---7h9---9-7-9--7h9---9--7h9---9--7h9----------|
-|-----------------------------------------------------------------------------|
-|-----------------------------------------------------------------------------|
   G2

-|-----------------------------------------------------------------------------|
-|-----------------------------------------------------------------------------|
-|-----7-------------7--------7--------7------7--------------------------------|
-|-7h9---9-7-9--7h9---9--7h9---9--7h9----7h9---9-7-----------------------------|
-|-----------------------------------------------------------------------------|
-|-----------------------------------------------------------------------------|
   G2

-|-----------------------------------------------------------------------------|
-|-----------------------------------------------------------------------------|
-|---11b13-b13-b13-b13-b13-b13p9----9------------------------------------9-----|
-|-------------------------------11--------------------9h11p9h11-11p9----------|
-|--------------------------------------------------------------------11-------|
-|-----------------------------------------------------------------------------|
   G1 Solo 2:02

-|-----------------------------------------------------------------------------|
-|-----------------------------------------------------------------------------|
-|----------------------------------------9-9-7-----------------------9--------|
-|---11---11-11--11--11-----9h11-11-11--9-9-7-11----9h11--11p9------9----------|
-|----9----9--9---9---9-----9-----9--9--------11----9-----9-----11-------------|
-|----9----9--9---9---9-----9-----9--9-----------------------------------------|
   G2 2:02

-|-----------------------------------------------------------------------------|
-|-------------------------------------------------------------10-7------------|
-|------------------------------9-------11--11--------9b11vv-------9-7--7-7----|
-|--9h11-11---9h11p9h11-11p9----------------------12---------------------------|
-|---------------------------11------------------------------------------------|
-|-----------------------------------------------------------------------------|
   G1

-|----------------------------------------------------------------------------|
-|----------------------------------------------------------------------------|
-|-------------------9---9-7----------------------------------------7-7--7----|
-|---9h11--11--11----9---9-7---11--------9--9--7h9--x--x--x-x---9-9-7-7--7----|
-|---9------9---9--------------11--------9--9--7h9--x--x--x-x---9-9-----------|
-|---9------9---9------------------------7--7--7----------------7-7-----------|
   G2

-|------------------------7------------------9-----------12-----------15------|
-|----------------------7-----7-10---7v--------9------------12-----------15---|
-|------7vv---7vv--9b11-----9------9-----/10-----10--/13-------13-/16---------|
-|--9v------------------------------------------------------------------------|
-|----------------------------------------------------------------------------|
-|----------------------------------------------------------------------------|
   G1                                   2:18

-|-----------------------------------------------------------------------------|
-|-----------------------------------------------------------------------------|
-|-----------------------------------------------------------------------------|
-|---9--9--7h9--------------------------/--11--------12h14--------17-----------|
-|---9--9--7h9--------------------------/--11-------12h14--------17------------|
-|---7--7--7----------------------------/---9-------12----------15-------------|
   G2                                   2:18

-|-----15---------------------------------------------------------------------|
-|----------------------------------------------------------------------------|
-|--16------------------------------------------------------------------------|
-|----------------------------------------------------------------------------|
-|----------------------------------------------------------------------------|
-|----------------------------------------------------------------------------|
   G1

-|-----------------------------------------------------------------------------|
-|----------------------------------------------7------------------------------|
-|-----------------------7---9---7--9--7--9--7----9-7-9b11vv--/----------------|
-|------17-------9------7---9---7--9--7--9--7---------------------9------------|
-|---17----------9------------------------------------------------9------------|
-|-----------------------------------------------------------------7--7-7-7----|
   G2

-|-----------------------------------------------------------------------------|
-|----------------9--10-10--10-9----12--13-12---9-------9b10-9--7---7--7----8--|
-|----------------9---9--9---9-9----12--12-12---9--9-7--9b10-9--7---7----7--7--|
-|----7h9---9----9---9--9---9-9----12--12-12---9--9-7--------------7-----------|
-|----7h9---9------------------------------------------------------------------|
-|-7---------------------------------------------------------------------------|
   G2

-|----------------------------------------------------------------------------|
-|--7------------------------------9---10--9--------12--------13--12----------|
-|--7------------------------------9---11--9--------12--12----14--12----------|
-|-------9---9--7h9p7--11--9--7----9-----------12---12-----12-----------------|
-|-------9---9--7h9p7--11--9--7-----------------------------------------------|
-|----------------------------------------------------------------------------|
   G2

-|-----------------------------------------------------------------------------|
-|--------10--10--9------------------------------------------------------------|
-|---9----7---7---9--------------7--------7--------7------7--------------------|
-|---9----7---7---7----------7h9---9--7h9---9--7h9----7h9---9--7--9------------|
-|---7------------------9------------------------------------------------------|
-|-----------------------------------------------------------------------------|
   G2              2:54

-|-----------------------------------------------------------------------------|
-|-----------------------------------------------------------------------------|
-|-------------------------------------------7---------------------------------|
-|---------------------------------------7h9---9-7-9---------------------------|
-|-------------------------------------------------9---------------------------|
-|-------------------------------------------------7---------------------------|
   G2   Can I get a Hallelujah people?
comments
We did not receive enough feedback on this tab! Please rate:
print report bad tab
1 2 3 4 5
1 comment total.
0 reply
binadra1234 wrote on June 14 2013, 12:50 pm

In what tunning Mother Love Bone played?

I want to post or [tab]
guest
You may want to rate the tab now too:
select rating
Please do not post tabs as comments. Select "correction" instead!