Oops, an error
Loading. Please wait.

Chole Dancercrown Of Thorns Tab

594 views 6 this week
no commentswrite comment
1 2 3 4 5
please rate
add to favorites launch autoscroll
font size
0
reset
Autoscroll
+/-
esc
set tempo
stop
Contributor
WARNING: You are trying to view
                                    content from Ultimate-Guitar.com
                                    in an unauthorized application,
                                    which is prohibited.

                                    Please use an official Ultimate
                                    Guitar Tabs application for iPhone,
                                    iPad or Android to access legitimate
                                    chords, guitar, bass, and drum tabs
                                    from Ultimate-Guitar.com database.

                                    Type "ultimate guitar tabs" in Apple
                                    App Store's or Android Market's
                                    search to find the application.
-|---------0-------|-------0-----0---|---------0-------|---------0-------|----|
-|-----3-----3---3-|-----3---------3-|-----3-----3---3-|-----3-----3---3-|----|
-|---2---2-----2---|---2-------2-----|---0---0-----0---|---0---0-----0---|----|
-|-----------------|---------0-------|-----------------|-----------------|----|
-|-0---------------|-2---------------|-----------------|-----------------|----|
-|-----------------|-----------------|-3---------------|-3---------------|----|
 Chloe Dancer, piano---> guitar (tuned half step down)                16x

-|---------0-------|---------0-------|----------------------------------------|
-|-----3-----3---3-|-----3-----3---3-|----------------------------------------|
-|---0---0-----0---|---0---0-----0---|----------------------------------------|
-|-----------------|-----------------|----------------------------------------|
-|-----------------|-----------------|----------------------------------------|
-|-3---------------|-3---------------|----------------------------------------|


-|-----------------|-----------------|-----------------|-----------------|----|
-|---------2-------|-------2-----2---|---------2-------|---------2-------|----|
-|-----4-----4---4-|-----4---------4-|-----4-----4---4-|-----4-----4---4-|----|
-|---4---4-----4---|---4-------4-----|---2---2-----2---|---2---2-----2---|----|
-|-----------------|---------2-------|-----------------|-----------------|----|
-|-2---------------|-4---------------|-0---------------|-0---------------|----|
Chloe Dancer piano for standard tuned guitar, capo 2nd fret (all notes
                                                         relative to capo)

-|-5--5--|-3--3--|-5--5--|-3--3--|-5--5--|-3--3--|-5--5--|-3--3--3--|---------|
-|-5--5--|-3--3--|-5--5--|-3--3--|-5--5--|-3--3--|-5--5--|-3--3--3--|---------|
-|-7--6--|-5--4--|-7--6--|-5--4--|-7--6--|-5--4--|-7--6--|-5--4--4--|---------|
-|-7--7--|-5--5--|-7--7--|-5--5--|-7--7--|-5--5--|-7--7--|-5--5--5--|---------|
-|-5--5--|-3--3--|-5--5--|-3--3--|-5--5--|-3--3--|-5--5--|-3--3--5--|---------|
-|-5--5--|-3--3--|-5--5--|-3--3--|-5--5--|-3--3--|-5--5--|-3--3--3--|---------|
 Crown of Thorns, intro, G1

-|----------|----------|------|----------|----------|----------|--------------|
-|----------|----------|------|----------|----------|----------|--------------|
-|----------|-5^----5^-|------|-5^----5^-|----------|-5^----5^-|--------------|
-|----7^----|----5^----|--7^--|----5^----|----7^----|----5^----|--------------|
-|-7^----7^-|----------|------|----------|-7^----7^-|----------|--------------|
-|----------|----------|------|----------|----------|----------|--------------|
 Intro, G2

-|----------|----------|------------------------------------------------------|
-|----------|----------|------------------------------------------------------|
-|----------|-5^-------|------------------------------------------------------|
-|----7^----|----5^-5^-|------------------------------------------------------|
-|-7^----7^-|----------|------------------------------------------------------|
-|----------|----------|------------------------------------------------------|


-|-5--5--|-3--3--|-5--5--|-3--3-----|-5--5-----|-3--3------|------------------|
-|-5--5--|-3--3--|-5--5--|-3--3-----|-5--5--0--|-3--3--0---|------------------|
-|-7--6--|-5--4--|-7--6--|-5--4--0--|-7--6-----|-5--4----0-|------------------|
-|-7--7--|-5--5--|-7--7--|-5--5-----|-7--7-----|-5--5------|------------------|
-|-5--5--|-3--3--|-5--5--|-3--3-----|-5--5-----|-3--3------|------------------|
-|-5--5--|-3--3--|-5--5--|-3--3-----|-5--5-----|-3--3------|------------------|
 Verse,G1

-|-5--5------|-3--3----|------------------------------------------------------|
-|-5--5--0---|-3--3----|------------------------------------------------------|
-|-7--6------|-5--4--0-|------------------------------------------------------|
-|-7--7----7-|-5--5----|------------------------------------------------------|
-|-5--5------|-3--3----|------------------------------------------------------|
-|-5--5------|-3--3----|------------------------------------------------------|


-|-5--5-------|-3--3------|-5--5------|-3--3-----|----------------------------|
-|-5--5--0----|-3--3--0---|-5--5--0---|-3--3-----|----------------------------|
-|-7--6-------|-5--5----0-|-7--6------|-5--4-----|----------------------------|
-|-7--7----7--|-5--4------|-7--7----7-|-5--5--5--|----------------------------|
-|-5--5-------|-3--3------|-5--5------|-3--3--5--|----------------------------|
-|-5--5-------|-3--3------|-5--5------|-3--3--3--|----------------------------|
 G1

-|-------0----|-------0---|-------0---|----------|----------------------------|
-|------------|-----------|-----------|-------0--|----------------------------|
-|-7--6-------|-5--4------|-7--6------|-5--4-----|----------------------------|
-|-7--7-------|-5--5------|-7--7------|-5--5-----|----------------------------|
-|-5--5-------|-3--3------|-5--5------|-3--3-----|----------------------------|
-|------------|-----------|-----------|----------|----------------------------|
 G2

-|-5--5-------|-3--3------|-5--5------|-3--3------|---------------------------|
-|-5--5--0----|-3--3--0---|-5--5--0---|-3--3--0---|---------------------------|
-|-7--6-------|-5--4----0-|-7--6------|-5--4----0-|---------------------------|
-|-7--7----7--|-5--5------|-7--7----7-|-5--5------|---------------------------|
-|-5--5-------|-3--3------|-5--5------|-3--3------|---------------------------|
-|-5--5-------|-3--3------|-5--5------|-3--3------|---------------------------|
 G1                                             2x

-|-5--5--0----|-3--3--0---|-5--5--0---|-3--3------|---------------------------|
-|-5--5--0----|-3--3--0---|-5--5--0---|-3--3------|---------------------------|
-|-7--6-------|-5--4------|-7--6------|-5--4--0---|---------------------------|
-|-7--7-------|-5--5------|-7--7------|-5--5--0---|---------------------------|
-|-5--5-------|-3--3------|-5--5------|-3--3------|---------------------------|
-|-5--5-------|-3--3------|-5--5------|-3--3------|---------------------------|
 2 guitars arranged for 1

-|-5--5--5--5--|-3--3--3--3--|-5--5--5--5--|-3--3--3--|-----------------------|
-|-5--5--5--5--|-3--3--3--3--|-5--5--5--5--|-3--3--3--|-----------------------|
-|-7--6--7--6--|-5--4--5--4--|-7--6--7--6--|-5--4--4--|-----------------------|
-|-7--7--7--7--|-5--5--5--5--|-7--7--7--7--|-5--5--5--|-----------------------|
-|-5--5--5--5--|-3--3--3--3--|-5--5--5--5--|-3--3--5--|-----------------------|
-|-5--5--5--5--|-3--3--3--3--|-5--5--5--5--|-3--3--3--|-----------------------|
 Chorus                                             2x

-|-5--5-------|-3--3-------|-5--5-------|-3--3-----|--------------------------|
-|-5--5--0----|-3--3--0----|-5--5--0----|-3--3-----|--------------------------|
-|-7--6-------|-5--4----0--|-7--6-------|-5--4--0--|--------------------------|
-|-7--7----7--|-5--5-------|-7--7----7--|-5--5--5--|--------------------------|
-|-5--5-------|-3--3-------|-5--5-------|-3--3--5--|--------------------------|
-|-5--5-------|-3--3-------|-5--5-------|-3--3--3--|--------------------------|
 2nd Verse

-|-5--5--5--5--|-3--3--3--3--|-5--5--5--5--|-3--3--3--|-----------------------|
-|-5--5--5--5--|-3--3--3--3--|-5--5--5--5--|-3--3--3--|-----------------------|
-|-7--6--7--6--|-5--4--5--4--|-7--6--7--6--|-5--4--4--|-----------------------|
-|-7--7--7--7--|-5--5--5--5--|-7--7--7--7--|-5--5--5--|-----------------------|
-|-5--5--5--5--|-3--3--3--3--|-5--5--5--5--|-3--3--5--|-----------------------|
-|-5--5--5--5--|-3--3--3--3--|-5--5--5--5--|-3--3--3--|-----------------------|
 2nd Chorus                                        2x

-|---------------------|----------------------|-------------------------------|
-|---------------------|----------------------|-------------------------------|
-|---------------------|----------------------|-------------------------------|
-|-7---10----10--9--5--|-7---10----10--9--12--|-------------------------------|
-|-7---10----10--9--5--|-7---10----10--9--12--|-------------------------------|
-|-5----8-----8--7--3--|-5----8-----8--7--10--|-------------------------------|
 Bridge, G1          3x

-|-0----0-----0-----3--|-0----0-----0------2--|-------------------------------|
-|-2----1-----1--4--3--|-2----1-----1--4---3--|-------------------------------|
-|-2----0-----0--4--0--|-2----0-----0--4---2--|-------------------------------|
-|-2----2-----2--4--0--|-2----2-----2--4---0--|-------------------------------|
-|-0----3-----3--2--2--|-0----3-----3--2------|-------------------------------|
-|------------------3--|----------------------|-------------------------------|
 Bridge, G2          3x

-|-----------------------------|--------------------|---------------|---------|
-|-----------------------------|--------------------|---------------|---------|
-|------5-5-5--9-----5-5-5--9--|----9-/-12-12-12--9-|---------------|---------|
-|------5-5-5--9-----5-5-5--9--|--------------------|---------------|---------|
-|------3-3-3--7-----3-3-3--7--|----7-/-10-10-10--7-|---------------|---------|
-|-0-----------0------------0--|-0------------------|-8--10-8--7-5--|---------|
 Interlude, G1

-|--------------------|---------------|---------------------|----------------|
-|--------------------|---------------|---------------------|----------------|
-|----9-/-12-12-12--9-|---------------|----9-/-12-12-12--9--|----------------|
-|--------------------|---------------|---------------------|----------------|
-|----7-/-10-10-10--7-|---------------|----7-/-10-10-10--7--|----------------|
-|-0------------------|-8--10-8--7/10-|-0-------------------|-8--10-8--7-5---|


-|--------------------|----------------|---------------|-------------|--------|
-|--------------------|----------------|---------------|-------------|--------|
-|----9-/-12-12-12--9-|----------------|-----5-5-5--9--|---5-5-5--9--|--------|
-|--------------------|----------------|-----5-5-5--9--|---5-5-5--9--|--------|
-|----7-/-10-10-10--7-|----------------|-----3-3-3--7--|---3-3-3--7--|--------|
-|-0------------------|-8--10-8--7/10--|-0----------0--|----------0--|--------|


-|-5--5--5----|---------------------------------------------------------------|
-|-5--5--5----|---------------------------------------------------------------|
-|-7--6--6----|---------------------------------------------------------------|
-|-7--7--7----|---------------------------------------------------------------|
-|-5--5--7----|---------------------------------------------------------------|
-|-5--5--5----|---------------------------------------------------------------|


-|-----------|---------------------|-------------|---------------------------|
-|-----------|-10b12r10--8b9r8-----|-----8-------|-8b10r8-8b9r8b9r8b9r8\-----|
-|-----------|-----------------9\--|-7h9---9-7-9-|---------------------------|
-|-----------|---------------------|-------------|---------------------------|
-|--7--------|---------------------|-------------|---------------------------|
-|-----------|---------------------|-------------|---------------------------|
 Interlude,G2, w/ delay

-|------------------------------------|----------------------|----------------|
-|-------------8----8-10-10b12r10p8---|----------------------|----------------|
-|-7h9p7h9p7h9----9-----------------9-|----------------------|----------------|
-|------------------------------------|-------5-------5b6r5--|----------------|
-|------------------------------------|-x-5h7---7-5-7--------|----------------|
-|------------------------------------|----------------------|----------------|


-|------------------------------|----------------|------------|---------------|
-|------------------------------|-12-------------|------------|---------------|
-|------------------------------|----------------|------------|---------------|
-|-7p5h7p5h7p5h7p5-7b8--r7--b8--|----------------|-12--11--7--|---------------|
-|------------------------------|----------------|-12--11--7--|---------------|
-|------------------------------|----------------|-10---9--5--|---------------|
                                 (feedback)

-|-7--7--7--7--|-5--5--5--5--|-7--7--7--7--|-5--5--5--|-----------------------|
-|-7--7--7--7--|-5--5--5--5--|-7--7--7--7--|-5--5--5--|-----------------------|
-|-9--8--9--8--|-7--6--7--6--|-9--8--9--8--|-7--6--6--|-----------------------|
-|-9--9--9--9--|-7--7--7--7--|-9--9--9--9--|-7--7--7--|-----------------------|
-|-7--7--7--7--|-5--5--5--5--|-7--7--7--7--|-5--5--7--|-----------------------|
-|-7--7--7--7--|-5--5--5--5--|-7--7--7--7--|-5--5--5--|-----------------------|
 Chorus                                             2x

-|---------------------|-----------|----------------------|------------|------|
-|---------------------|-----------|----------------------|------------|------|
-|-9--9-/-12-12-12--9--|-----------|--9--9-/-12-12-12--9--|------------|------|
-|-9--9-/-12-12-12--9--|-----------|--9--9-/-12-12-12--9--|------------|------|
-|-7--7-/-10-10-10--7--|-10--9--5--|--7--7-/-10-10-10--7--|-10--9--12--|------|
-|-0-------------------|--8--7--3--|--0-------------------|--8--7--10--|------|
 Outro, G1                                                repeat till end

-|------------------|-------------------------------|-------------------------|
-|------------------|-----8-----8b10--r8---8--------|-------------------------|
-|------------------|-7h9---9-9----------9---9-7-9\-|-------------------------|
-|-5h7p5h7p5--------|-------------------------------|-------------------------|
-|-----------7-5h7\-|-------------------------------|-------------------------|
-|------------------|-------------------------------|-------------------------|
 Outro, G2

-|----------------------------------------|----------------------------------|
-|----------------------------------------|------------------8---8-10b12-----|
-|-5h7p5---5---5---5b7r5------------------|--------------7-9---9-------------|
-|-------7---7---7-------7-5-7b8--8r7p5---|-7b8--r7---/9---------------------|
-|--------------------------------------7-|----------------------------------|
-|----------------------------------------|----------------------------------|


-|--------------------------|-------------------------------------------------|
-|-10b12-10b12r10p8---8b9---|-------------------------------------------------|
-|------------------9-------|-------------------------------------------------|
-|--------------------------|-------------------------------------------------|
-|--------------------------|-------------------------------------------------|
-|--------------------------|-------------------------------------------------|
                           Fade out
comments
We did not receive enough feedback on this tab! Please rate:
1 2 3 4 5
I want to post or [tab]
guest
You may want to rate the tab now too:
select rating
Please do not post tabs as comments. Select "correction" instead!