Oops, an error
Loading. Please wait.

Lady Godiva Blues Tab

208 views 1 this week
no commentswrite comment
1 2 3 4 5
please rate
Autoscroll
+/-
esc
set tempo
stop
Contributor
Difficulty
intermediate
Hey! There's an official Ultimate Guitar app which is ideal
for learning songs when you're away from computer. Get the app
WARNING: You are trying to view
                                    content from Ultimate-Guitar.com
                                    in an unauthorized application,
                                    which is prohibited.

                                    Please use an official Ultimate
                                    Guitar Tabs application for iPhone,
                                    iPad or Android to access legitimate
                                    chords, guitar, bass, and drum tabs
                                    from Ultimate-Guitar.com database.

                                    Type "ultimate guitar tabs" in Apple
                                    App Store's or Android Market's
                                    search to find the application.
Stone-Open-D tuning (DADF#AD) low-->high, w/ slide
Bruce-Standard
Guitar lines alternate throughout

-|-12--12\--/12------------------12--12\--/12--------------------|------------|
-|-12--12\------10/11-11/12------12--12\------10/11-11/12-12\10--|------------|
-|-12--12\------------11/12-12\--12--12\------------11/12-12\10--|------------|
-|-12--12\------------------12\--12--12\-------------------------|------------|
-|-12--12\-----------------------12--12\-------------------------|------------|
-|-12--12\-----------------------12--12\-------------------------|------------|
 Intro, Stone

-|---------------------------------------------------------------|------------|
-|--7---7-------------------------7---7--------------------------|------------|
-|--7---7-------------------------7---7--------------------------|------------|
-|--7---7-------------------------7---7--------------------------|------------|
-|--5---5-------------------------5---5--------------------------|------------|
-|---------------------------------------------------------------|------------|
 Intro, Bruce

-|-12--12\--/12----------------10--10-10-10------------------12------------|--|
-|-12--12\------10-------------10--10-10-10--------------------------------|--|
-|-12--12\---------11/12-12\---10--10-10-10--------------/12-------12------|--|
-|-12--12\---------------12\---10--10-10-10-10\9\8\7\5\---------------12---|--|
-|-12--12\---------------------10--10-10-10--------------------------------|--|
-|-12--12\---------------------10--10-10-10--------------------------------|--|
 Stone

-|-------------------------------------------------------------------------|--|
-|--7---7--------------------------------------------------7---------------|--|
-|--7---7-----------------------5--------------------------7---------------|--|
-|--7---7-----------------------5--------------------------7---------------|--|
-|--5---5-----------------------3--------------------------5---------------|--|
-|-------------------------------------------------------------------------|--|
 Bruce

-|---------12-----------12----10/12-12\------12-----------12-\-10/12-12\--|---|
-|--------------------------0-10/12----------------------------10/12------|---|
-|-----/12-----12\--/12------------------/12-----12\--/12-----------------|---|
-|------------------------------------------------------------------------|---|
-|-12\--------------------------------------------------------------------|---|
-|------------------------------------------------------------------------|---|
 Verse, Stone

-|------------------------------------------------------------------------|---|
-|----7------------------------------------7------------------------------|---|
-|----7------------------------------------7------------------------------|---|
-|----7------------------------------------7------------------------------|---|
-|----5------------------------------------5------------------------------|---|
-|------------------------------------------------------------------------|---|
 Verse, Bruce

-|-----12----------12------------------------12----------12------------------|
-|--------------------12\10-10------------------------------12\10-10/12------|
-|-/12-----12\-/12-------------10/12-12\-/12-----12\-/12----------------12\--|
-|---------------------------------------------------------------------------|
-|---------------------------------------------------------------------------|
-|---------------------------------------------------------------------------|
 Stone

-|---------------------------------------------------------------------------|
-|---7-------------------------------------7---------------------------------|
-|---7-------------------------------------7---------------------------------|
-|---7-------------------------------------7---------------------------------|
-|---5-------------------------------------5---------------------------------|
-|---------------------------------------------------------------------------|
 Bruce

-|-10-------------12\--------------12----------12------------------12--------|
-|-10-------------12\--------------------------------------------------------|
-|-10-------------12\-------7\-/12-----12\-/12-----0-10/12-12\-/12-----12\---|
-|-10-------------12\-------7\-/12-------------------------------------------|
-|-10-------------12\--------------------------------------------------------|
-|-10-------------12\--------------------------------------------------------|
 Stone

-|---------------------------------------------------------------------------|
-|--5--------------7\------------7----------------------------7--7-----------|
-|--5-------5--5-5-7\------------7----------------------------7--7-----------|
-|--5-------5--5-5-7\------------7----------------------------7--7-----------|
-|--3-------3--3-3-5\------------5----------------------------5--5-----------|
-|---------------------------------------------------------------------------|
 Bruce

-|-----12--12-----------10---------------10---10-------10-----12\------------|
-|------------------12\-10-----------------------10-----------12\------------|
-|-/12--------10/12-12\-10-----------/10------------10----10/-12\------------|
-|------------10/12-12\-10------------------------------------12\------------|
-|----------------------10------------------------------------12\------------|
-|----------------------10------------------------------------12\------------|
 Stone

-|---------------------------------------------------------------------------|
-|-----------------------5-------------------------------------7\------------|
-|-----------------------5-----5-5-5--------------------5------7\------------|
-|-----------------------5-----5-5-5--------------------5------7\-------x-\--|
-|-----------------------3-----3-3-3--------------------3------5\-------x-\--|
-|----------------------------------------------------------------------x-\--|
 Bruce

-|-3---3/5--5-/--0------12------3---3/5--5-/--0------12--------|--------------|
-|-3---3/5--5-/--0---------12\--3---3/5--5-/--0---------12-----|--------------|
-|-3---3/5--5-/--0--/12----12\--3---3/5--5-/--0--/12-------12\-|--------------|
-|-3---3/5--5-/--0--------------3---3/5--5-/--0----------------|--------------|
-|-3---3/5--5-/--0--------------3---3/5--5-/--0----------------|--------------|
-|-3---3/5--5-/--0--------------3---3/5--5-/--0----------------|--------------|
 Chorus, Stone

-|-1---1/3--3----2--------------1---1/3--3----2----------------|--------------|
-|-1---1/3--3----3--------------1---1/3--3----3----------------|--------------|
-|-2---2/4--4----2--------------2---2/4--4----2----------------|--------------|
-|-3---3/5--5----0--------------3---3/5--5----0----------------|--------------|
-|-3---3/5--5-------------------3---3/5--5---------------------|--------------|
-|-1---1/3--3-------------------1---1/3--3---------------------|--------------|
 Chorus, Bruce

-|-12--12\--/12------------------12--12\--/12---------------------|-----------|
-|-12--12\------10/11-11/12------12--12\------10/11-11/12-12\10---|-----------|
-|-12--12\------------11/12-12\--12--12\------------11/12-12\10---|-----------|
-|-12--12\------------------12\--12--12\--------------------------|-----------|
-|-12--12\-----------------------12--12\--------------------------|-----------|
-|-12--12\-----------------------12--12\--------------------------|-----------|
 Interlude, Stone

-|----------------------------------------------------------------|-----------|
-|--7---7-------------------------7---7---------------------------|-----------|
-|--7---7-------------------------7---7---------------------------|-----------|
-|--7---7-------------------------7---7---------------------------|-----------|
-|--5---5-------------------------5---5---------------------------|-----------|
-|----------------------------------------------------------------|-----------|
 Interlude, Bruce

-|-12--12\--/12------------------10--10-10-10-----------------12-------------|
-|-12--12\------10/11-11/12------10--10-10-10--------------------------------|
-|-12--12\------------11/12-12\--10--10-10-10-------------/12-------12-------|
-|-12--12\------------------12\--10--10-10-10-10\9\8\7\5\--------------12----|
-|-12--12\-----------------------10--10-10-10--------------------------------|
-|-12--12\-----------------------10--10-10-10--------------------------------|
 Stone

-|---------------------------------------------------------------------------|
-|--7---7------------------------5--------------------------7----------------|
-|--7---7------------------------5--------------------------7----------------|
-|--7---7------------------------5--------------------------7----------------|
-|--5---5------------------------3--------------------------5----------------|
-|---------------------------------------------------------------------------|
 Bruce

-|-----12-----------12-----------12-----------12----------12-12-10/12-12\--|--|
-|--------------------------------------------------------------10/12------|--|
-|-/12------12\-/12------12\-/12------12\-/12-----12\-/12------------------|--|
-|-------------------------------------------------------------------------|--|
-|-------------------------------------------------------------------------|--|
-|-------------------------------------------------------------------------|--|
 Verse, Stone

-|-------------------------------------------------------------------------|--|
-|---------------------------7----------------------------7----------------|--|
-|---------------------------7--------0-7-----------------7----------------|--|
-|---------------------------7----------7-----------------7----------------|--|
-|--------------------------------------------------------5----------------|--|
-|-------------------------------------------------------------------------|--|
 Verse, Bruce

-|-10------------12-\----/---|------------------------------------------------|
-|-10------------12-\----/---|------------------------------------------------|
-|-10------------12-\----/---|------------------------------------------------|
-|-10------------12-\----/---|------------------------------------------------|
-|-10------------12-\----/---|------------------------------------------------|
-|-10------------12-\----/---|------------------------------------------------|
 Stone

-|---------------------------|------------------------------------------------|
-|--5-------------7-\--------|------------------------------------------------|
-|--5------5--5---7-\--------|------------------------------------------------|
-|--5------5--5---7-\--------|------------------------------------------------|
-|--3------3--3---5-\--------|------------------------------------------------|
-|---------------------------|------------------------------------------------|
 Bruce

-|-3---3/5--5-/--0------12------|-3--3/5--5--/12--12\--/12---------------|----|
-|-3---3/5--5-/--0---------12\--|-3--3/5--5--/12--12\------10-11/12------|----|
-|-3---3/5--5-/--0--/12----12\--|-3--3/5--5--/12--12\---------11/12-12\--|----|
-|-3---3/5--5-/--0--------------|-3--3/5--5--/12--12\---------------12\--|----|
-|-3---3/5--5-/--0--------------|-3--3/5--5--/12--12\--------------------|----|
-|-3---3/5--5-/--0--------------|-3--3/5--5--/12--12\--------------------|----|
 Chorus, Stone               3x

-|-1---1/3--3----2--------------|-1--1/3--3----2---------2---------------|----|
-|-1---1/3--3----3--------------|-1--1/3--3----3---------3---------------|----|
-|-2---2/4--4----2--------------|-2--2/4--4----2---------2---------------|----|
-|-3---3/5--5----0--------------|-3--3/5--5----0---------0---------------|----|
-|-3---3/5--5-------------------|-3--3/5--5------------------------------|----|
-|-1---1/3--3-------------------|-1--1/3--3------------------------------|----|
 Chorus, Bruce               3x

-|-----------------------12--12\--/12--------------------|--------------------|
-|-----------------------12--12\------10/11-11/12-12\10--|--------------------|
-|-----------------------12--12\------------11/12-12\10--|--------------------|
-|-10--10-10-10\9\8\7\5\-12--12\-------------------------|--------------------|
-|-----------------------12--12\-------------------------|--------------------|
-|-----------------------12--12\-------------------------|--------------------|
 Bridge, Stone

-|-------------------------------------------------------|--------------------|
-|------------------------7---7--------------------------|--------------------|
-|------------5--5--------7---7-----7--------------------|--------------------|
-|------------5--5--------7---7-----7--------------------|--------------------|
-|------------3--3--------5---5-----5--------------------|--------------------|
-|-------------------------------------------------------|--------------------|
 Bridge, Bruce

-|------15---------17-----12--12\--/12------------------|---------------------|
-|---------15---------17\-12--12\------10/11-11/12------|---------------------|
-|-/15--------/17---------12--12\------------11/12-12\--|---------------------|
-|------------------------12--12\------------------12\--|---------------------|
-|------------------------12--12\-----------------------|---------------------|
-|------------------------12--12\-----------------------|---------------------|
 Stone

-|------------------------------------------------------|---------------------|
-|-------------------------7---7------------------------|---------------------|
-|-------------------------7---7----7-------------------|---------------------|
-|---3----------5----------7---7----7-------------------|---------------------|
-|---3----------5----------5---5----5-------------------|---------------------|
-|---1----------3---------------------------------------|---------------------|
 Bruce

-|-----------------------12--12\-----------------|----------------------------|
-|-----------------------12--12\--/12-10/12-12\--|----------------------------|
-|-----------------------12--12\-----------------|----------------------------|
-|-10--10-10-10\9\8\7\5\-12--12\-----------------|----------------------------|
-|-----------------------12--12\-----------------|----------------------------|
-|-----------------------12--12\-----------------|----------------------------|
 Stone

-|-----------------------------------------------|----------------------------|
-|------------------------7---7------------------|----------------------------|
-|------------5--5--------7---7-----7------------|----------------------------|
-|------------5--5--------7---7-----7------------|----------------------------|
-|------------3--3--------5---5-----5------------|----------------------------|
-|-----------------------------------------------|----------------------------|
 Bruce

-|------15---------17-----------15\*12-----------------|----------------------|
-|---------15---------17\-------------*12--------------|----------------------|
-|-/15--------/17---------/15------------*12----*12\---|----------------------|
-|------------------------------------------*12-*12\---|----------------------|
-|-----------------------------------------------------|----------------------|
-|-----------------------------------------------------|----------------------|
 Stone                             *Place slide slightly behind 12th fret

-|-----------------------------------------------------|----------------------|
-|-----------------------------------------------------|----------------------|
-|-----------------------------------------------------|----------------------|
-|---3----------5-----------7--------------------------|----------------------|
-|---3----------5-----------5--------------------------|----------------------|
-|---1----------3--------------------------------------|----------------------|
 Bruce

-|-----12-------10/12----------10------8/10-10\--|----------------------------|
-|--------\10---10/12-12\---------\8---8/10-10\--|----------------------------|
-|-/12--------0-------12\--/10-------0-----------|----------------------------|
-|-/12----------------12\--/10-------------------|----------------------------|
-|-----------------------------------------------|----------------------------|
-|-----------------------------------------------|----------------------------|
 Slide Solo, Stone

-|-----12-------10/12----------10------8/10------|----------------------------|
-|--------\10---10/12-12\---------\8---8/10-10\--|----------------------------|
-|-/12--------0-------12\--/10-------0------10\--|----------------------------|
-|-/12---------------------/10--------------10\--|----------------------------|
-|-----------------------------------------------|----------------------------|
-|-----------------------------------------------|----------------------------|


-|-----12-----------10------------------/22-22-22\-/22-22-22\--|--------------|
-|--------------------------------------/22-22-22\-/22-22-22\--|--------------|
-|-/12-----12\--/10-----10\--/12----\--------------------------|--------------|
-|-/12-----12\--/10-----10\--/12----\--------------------------|--------------|
-|-------------------------------------------------------------|--------------|
-|-------------------------------------------------------------|--------------|
 Stone          W/Fill 1                         W/Fill 2

-|-----------------------------|------------|---------------------------------|
-|-----------------------------|------------|---------------------------------|
-|-*14r12-----10h12p10---------|-12b14r12---|---------------------------------|
-|----------------------12-----|------------|---------------------------------|
-|-----------------------------|------------|---------------------------------|
-|-----------------------------|------------|---------------------------------|
 Fill 1 *pre-bend               Fill 2

-|-12--12\----------------10--------------------|-----------------------------|
-|-12--12\---10-----------10--------------------|-----------------------------|
-|-12--12\------11/12-12\-10--------------------|-----------------------------|
-|-12--12\------------12\-10-10-10-10\9\8\7\5\--|-----------------------------|
-|-12--12\----------------10--------------------|-----------------------------|
-|-12--12\----------------10--------------------|-----------------------------|
 Outro, Stone

-|----------------------------------------------|-----------------------------|
-|--7---7---------------------------------------|-----------------------------|
-|--7---7---7--------------5--------5--5--------|-----------------------------|
-|--7---7---7--------------5--------5--5--------|-----------------------------|
-|--5---5---5--------------3--------3--3--------|-----------------------------|
-|----------------------------------------------|-----------------------------|
 Outro, Bruce

-|-12--12\--/12-----------------15---------17------|--------------------------|
-|-12--12\------10-----------------15---------17\--|--------------------------|
-|-12--12\---------11/12\--/15--------/17----------|--------------------------|
-|-12--12\-----------------------------------------|--------------------------|
-|-12--12\-----------------------------------------|--------------------------|
-|-12--12\-----------------------------------------|--------------------------|
 Stone

-|-------------------------------------------------|--------------------------|
-|--7---7------------------------------------------|--------------------------|
-|--7---7-----7------------------------------------|--------------------------|
-|--7---7-----7--------------3----------5----------|--------------------------|
-|--5---5-----5--------------3----------5----------|--------------------------|
-|---------------------------1----------3----------|--------------------------|
 Bruce

-|-12--12\--------------------------------------|-----------------------------|
-|-12--12\---10---------------------------------|-----------------------------|
-|-12--12\------11/12-12\-----------------------|-----------------------------|
-|-12--12\------11/12-12\-10-10-10-10\9\8\7\5\--|-----------------------------|
-|-12--12\--------------------------------------|-----------------------------|
-|-12--12\--------------------------------------|-----------------------------|
 Stone

-|----------------------------------------------|-----------------------------|
-|--7---7---------------------------------------|-----------------------------|
-|--7---7---7--------------5--------5--5--------|-----------------------------|
-|--7---7---7--------------5--------5--5--------|-----------------------------|
-|--5---5---5--------------3--------3--3--------|-----------------------------|
-|----------------------------------------------|-----------------------------|
 Bruce

-|-12--12\----------------------15---------17-17\--|--------------------------|
-|-12--12\---10-------12\----------15--------------|--------------------------|
-|-12--12\------11/12-12\--/15--------/17----------|--------------------------|
-|-12--12\-----------------------------------------|--------------------------|
-|-12--12\-----------------------------------------|--------------------------|
-|-12--12\-----------------------------------------|--------------------------|
 Stone

-|-------------------------------------------------|--------------------------|
-|--7---7------------------------------------------|--------------------------|
-|--7---7---7--------------------------------------|--------------------------|
-|--7---7---7----------------3----------5----------|--------------------------|
-|--5---5---5----------------3----------5----------|--------------------------|
-|---------------------------1----------3----------|--------------------------|
 Bruce

-|------15---------17----------15---------17-------|--------------------------|
-|---------15---------17\---------15---------17\---|--------------------------|
-|-/15--------/17---------/15--------/17-----------|--------------------------|
-|-------------------------------------------------|--------------------------|
-|-------------------------------------------------|--------------------------|
-|-------------------------------------------------|--------------------------|
 Stone

-|-------------------------------------------------|--------------------------|
-|-------------------------------------------------|--------------------------|
-|-------------------------------------------------|--------------------------|
-|---3----------5-----------3----------5-----------|--------------------------|
-|---3----------5-----------3----------5-----------|--------------------------|
-|---1----------3-----------1----------3-----------|--------------------------|
 Bruce

-|-12-12\11/12---------0----------------------|-------------------------------|
-|-------------12------0-----8-/-9-/-10-/-----|-------------------------------|
-|----------------12\--0----------------------|-------------------------------|
-|---------------------------8-/-9-/-10-/-----|-------------------------------|
-|--------------------------------------------|-------------------------------|
-|--------------------------------------------|-------------------------------|
 Stone                                        End

-|--------------------------------------------|-------------------------------|
-|--------------------------------------------|-------------------------------|
-|--7---------------------\-------------------|-------------------------------|
-|--7---------------------\-------------------|-------------------------------|
-|--5---------------------\-------------------|-------------------------------|
-|--------------------------------------------|-------------------------------|
 Bruce                                        End
comments
We did not receive enough feedback on this tab! Please rate:
print report bad tab
1 2 3 4 5
I want to post or [tab]
guest
You may want to rate the tab now too:
select rating
Please do not post tabs as comments. Select "correction" instead!