Oops, an error
Loading. Please wait.

Commit This To Memory Tab

5,153 views 15 this week
8 commentsread comments
1 2 3 4 5
accurate
x 6
add to favorites launch autoscroll
font size
0
reset
Autoscroll
+/-
esc
set tempo
stop
WARNING: You are trying to view
                                    content from Ultimate-Guitar.com
                                    in an unauthorized application,
                                    which is prohibited.

                                    Please use an official Ultimate
                                    Guitar Tabs application for iPhone,
                                    iPad or Android to access legitimate
                                    chords, guitar, bass, and drum tabs
                                    from Ultimate-Guitar.com database.

                                    Type "ultimate guitar tabs" in Apple
                                    App Store's or Android Market's
                                    search to find the application.
Tab: Commit This To Memory
Artist: Motion City Soundtrack
Jordan Kalck

Important!!!! I did not write the following tabs, so I do not take any credit for this. Enjoy!



1. Attractive Today
2. Everything Is Alright
3. When “You’re” Around
4. Resolution
5. Feel Like Rain
6. Make Out Kids
7. Time Turned Fragile
8. Let’s Get Fucked Up and Die
9. Better Open The Door
10. Together We’ll Ring In The New Year
11. Hangman 
12. Hold Me Down

-----------------------------------------------------------------------------------------------

Song: Attractive Today

Intro:

I am wrecked, I am overwhelmed...
e--------------------------------\
B---------------------------------\
G-16--16--16--16--16--16--16--16---\
D-16--16--16--16--16--16--16--16----}10x
A-14--14--14--14--14--14--14--14---/
E---------------------------------/

But I hate to say goodbye...
e-------------------------------------------------\
B--------------------------------------------------\
G---------------------------------------------------\
D-6--6--6--6--8--8--8--8--9--9--9--9--9--9--9--9-----}3x
A-6--6--6--6--8--8--8--8--9--9--9--9--9--9--9--9----/
E-4--4--4--4--6--6--6--6--7--7--7--7--7--7--7--7---/

Keyboard:

e------------------------------------------------------------|
B-----------------------------------------------------7------|
G-8----8--6--8------6--8--6----------8--6-8-6-----6-8--------|
D-----------------9---------------------------9---------9----|
A-----------------------------9----9-------------------------|
E------------------------------------------------------------|

Verse (Guitar 1):

P.M.....................................................................
e------------------------------------------------------------------------|
B------------------------------------------------------------------------|
G-------------------------6--6--6--6--6--6--6--6-------------------------|
D-9--9--9--9--9--9--9--9--6--6--6--6--6--6--6--6--6--6--6--6--6--6--6--6-|2x
A-9--9--9--9--9--9--9--9--4--4--4--4--4--4--4--4--6--6--6--6--6--6--6--6-|
E-7--7--7--7--7--7--7--7--------------------------4--4--4--4--4--4--4--4-|

Verse (Guitar 2):

P.M......................
e------------------------|-------------------------|
B-7--7--7--9--9--9-------|-7--7--7--9--9--9--------|
G-------------------8--8-|-------------------8--8--|
D------------------------|-------------------------|
A------------------------|-------------------------|
E------------------------|-------------------------|

And as I gently sip this drink...

e-------------------------------------------------\
B--------------------------------------------------\
G---------------------------------------------------\
D-6--6--6--6--8--8--8--8--9--9--9--9--9--9--9--9-----}3x
A-6--6--6--6--8--8--8--8--9--9--9--9--9--9--9--9----/
E-4--4--4--4--6--6--6--6--7--7--7--7--7--7--7--7---/ 

Solo:





e-11-------------------------14--12--11-----11----|
B----12---------------12-----------------12----12-|
G-------11---11-13------13------------------------|
D-------------------------------------------------|
A-------------------------------------------------|
E-------------------------------------------------|

e-11-------------------------14-------14-------14------14h16p14-|
B----12---------------12--------12-12----12-12----12-12---------|
G-------11---11-13------13--------------------------------------|
D---------------------------------------------------------------|
A---------------------------------------------------------------|
E---------------------------------------------------------------|

I know I shouldn't waste my time...

e-------------------------------------------------\
B--------------------------------------------------\
G---------------------------------------------------\
D-6--6--6--6--8--8--8--8--9--9--9--9--9--9--9--9-----}3x
A-6--6--6--6--8--8--8--8--9--9--9--9--9--9--9--9----/
E-4--4--4--4--6--6--6--6--7--7--7--7--7--7--7--7---/ 

I am wrecked, I am overwhelmed...
e--------------------------------\
B---------------------------------\
G-16--16--16--16--16--16--16--16---\
D-16--16--16--16--16--16--16--16----}6x
A-14--14--14--14--14--14--14--14---/
E---------------------------------/

When I just wanna feel alive...

e-------------------------------------------------\
B--------------------------------------------------\
G---------------------------------------------------\
D-6--6--6--6--8--8--8--8--9--9--9--9--9--9--9--9-----}3x
A-6--6--6--6--8--8--8--8--9--9--9--9--9--9--9--9----/
E-4--4--4--4--6--6--6--6--7--7--7--7--7--7--7--7---/ 

I just wanna feel attractive today.

e--------------------------------------------|
B--------------------------------------------|
G--------------------------------------------|
D-4--6--4--4--6--4--4--6--4--6~--------------|
A-4--6--4--4--6--4--4--6--4--6~--------------|
E-2--4--2--2--4--2--2--4--2--4~--------------|

solomike4203@aol.com

| /  slide up
| \  slide down
| h  hammer-on
| p  pull-off
| ~  vibrato/let ring
| +  harmonic
| x  Mute note

-------------------------------------------------------------------------------------------------

Song; Everything Is Alright

Intro (0:06-0:17) - Guitar 2 
e|----------------------------------| (x2)
B|----------------------------------|
G|--8-------5-----------------------|
D|--8-(x6)--5-(x8)--3-------6-------|
A|--6-------3-------3-(x6)--6-(x6)--|
E|------------------1-------4-------|

Intro (0:18-0:28) - Guitar 2
e|----------------------------------| (x2)
B|----------------------------------|
G|--8---------------5---------------|
D|--8-(x6)--6-------5-(x6)--6-------|
A|--6-------6-(x6)--3-------6-(x6)--|
E|----------4---------------4-------|

Intro (0:07-0:28) - Moog (Transposed for Guitar 1)
e|--3---3-----3-4-6-3------3---3-----3-4-3-1-1--| (x2)
B|---4---4---4-------3s4----4---4---4---------4-|
G|----------------------------------------------|
D|----------------------------------------------|
A|----------------------------------------------|
E|----------------------------------------------|






Verse (0:29-0:40) - Guitar 1
e|------------------------| You Can Use The Whammy Bar Here
B|------------------------|
G|--8~----5~--------------|
D|--8~----3~----3~----6~--|
A|--6~----3~----3~----6~--|
E|--------------1~----4~--|






Prechorus (0:41-0:53) - Guitar 2
e|--------------------------------------| (Palm-muted)
B|--------------------------------------|
G|--8--------5--------------------------|
D|--8-(x16)--5-(x16)--3--------6--------|
A|--6--------3--------3-(x16)--6-(x16)--|
E|--------------------1--------4--------|






Chorus (0:54-1:04) - Moog (Transposed for Guitar 1)
e|--3---3-----3-4-6-3------3---3-----3-4-3-1-1--| (x2)
B|---4---4---4-------3s4----4---4---4---------4-|
G|----------------------------------------------|
D|----------------------------------------------|
A|----------------------------------------------|
E|----------------------------------------------|

Chorus (0:54-1:04) - Guitar 2
e|----------------------------------| (x2)
B|----------------------------------|
G|--8---------------5---------------|
D|--8-(x6)--6-------5-(x6)--6-------|
A|--6-------6-(x6)--3-------6-(x6)--|
E|----------4---------------4-------|






Verse (1:05-1:17)

No Guitar






Prechorus (1:18-1:29) - Guitar 2
e|--------------------------------------| (Palm-muted)
B|--------------------------------------|
G|--8--------5--------------------------|
D|--8-(x16)--5-(x16)--3--------6--------|
A|--6--------3--------3-(x16)--6-(x16)--|
E|--------------------1--------4--------|

Prechorus (1:23) - Guitar 1
e|-------------------------------| 
B|-------------------------------|
G|------5--5---------------------|
D|------5--5-(slide down)--------|
A|------3--3---------------------|
E|-------------------------------|







Chorus (1:30-1:41) - Moog (Transposed for Guitar 1)
e|--3---3-----3-4-6-3------3---3-----3-4-3-1-1--| (x2)
B|---4---4---4-------3s4----4---4---4---------4-|
G|----------------------------------------------|
D|----------------------------------------------|
A|----------------------------------------------|
E|----------------------------------------------|

Chorus (1:30-1:41) - Guitar 2
e|----------------------------------| (x2)
B|----------------------------------|
G|--8---------------5---------------|
D|--8-(x6)--6-------5-(x6)--6-------|
A|--6-------6-(x6)--3-------6-(x6)--|
E|----------4---------------4-------|





Bridge (1:41-2:05) - Guitar 2
e|--------------------------------------------| (x4)
B|--------------------------------------------|
G|--7--5--8----7--5--8(~)---------------------|
D|--7--5--8----7--5--8(~)(only on last time)--|
A|--5--3--6----5--3--6(~)---------------------|
E|--------------------------------------------|

Bridge (1:55) (1:59) (2:01) -  Guitar 1
e|------------------------------| 
B|----------------3h4-----------|
G|------------3h5---------------|
D|------------------------------|
A|------------------------------|
E|------------------------------|

Bridge (2:06-2:12) -  Guitar 1
e|------------------------------| 
B|------------------------------|
G|----------5~------------------|
D|----------5~----3~------------|
A|----------3~----3~------------|
E|----------------1~------------|

Bridge (2:13-2:16) -  Guitar 1 and 2
e|------------------------------| 
B|------------------------------|
G|------------------------------|
D|--------6---------6-----------|
A|--------6-(x16)---6-----------|
E|--------4---------4-----------|






Prechorus (2:17-2:40) - Guitar 1 and 2 
e|--------------------------------------| (x2)
B|--------------------------------------|
G|--8--------5--------------------------|
D|--8-(x16)--5-(x16)--3--------6--------|
A|--6--------3--------3-(x16)--6-(x16)--|
E|--------------------1--------4--------|

There are some little moog notes floating in the background and are just barely
audible.  I can't really decipher them.




Chorus (2:41-3:03) - Moog (Transposed for Guitar 1)
e|--3---3-----3-4-6-3------3---3-----3-4-3-1-1--| (x2)
B|---4---4---4-------3s4----4---4---4---------4-|
G|----------------------------------------------|
D|----------------------------------------------|
A|----------------------------------------------|
E|----------------------------------------------|

Chorus (2:41-3:03) - Guitar 2
e|----------------------------------| (x4)
B|----------------------------------|
G|--8---------------5---------------|
D|--8-(x6)--6-------5-(x6)--6-------|
A|--6-------6-(x6)--3-------6-(x6)--|
E|----------4---------------4-------|





Ending (3:04-3:25) - Guitar 2
e|---------------------------------| (x4)
B|---------------------------------|
G|--7--5--3(~)---------------------|
D|--7--5--3(~)(only on last time)--|
A|--5--3--1(~)---------------------|
E|---------------------------------|

-------------------------------------------------------------------------------------------------

Song: When “You’re” Around

[Intro]-

Guitar 1
e|------------------------------------------------------------------------|  
B|------------------------------------------------------------------------|
G|------------------9--9--9--11-11---------------------9--9--9--11-11-11--|x3
D|-6--6--6--7--7----9--9--9--11-11----6--6--6--7--7----9--9--9--11-11-11--|
A|-6--6--6--7--7----7--7--7--9--9-----6--6--6--7--7----7--7--7--9--9--9---|
E|-4--4--4--5--5----------------------4--4--4--5--5-----------------------|


[Pre-Verse] -

Guitar 1
e|------------------------------------------------------------------------|  
B|------------------------------------------------------------------------|
G|------------------9--9--9--11-11---------------------9--9--9--11-11-11--| 
D|-6--6--6--7--7----9--9--9--11-11----6--6--6--7--7----9--9--9--11-11-11--|
A|-6--6--6--7--7----7--7--7--9--9-----6--6--6--7--7----7--7--7--9--9--9---|
E|-4--4--4--5--5----------------------4--4--4--5--5-----------------------|

Guitar 2 - 
e|-------------------------------------------------------------------|
B|------9---9-9-7------9---9-7h9-7------9---9-9-7------9---9-7h9-7\--|  
G|--9-9---9--------9-9---9----------9-9---9--------9-9---9-----------| 
D|-------------------------------------------------------------------| 
A|-------------------------------------------------------------------|
E|-------------------------------------------------------------------|


[Verse] -

Guitar 1                
e|------------------------------------------------------------------------|  
B|------------------------------------------------------------------------|
G|------------------9--9--9--11-11---------------------9--9--9--11-11-11--|x3
D|-6--6--6--7--7----9--9--9--11-11----6--6--6--7--7----9--9--9--11-11-11--|
A|-6--6--6--7--7----7--7--7--9--9-----6--6--6--7--7----7--7--7--9--9--9---|
E|-4--4--4--5--5----------------------4--4--4--5--5-----------------------|
   x  x  x  x  x    x  x  x  x  x     x  x  x  x  x    x  x  x  

e|------------------------------------------------------------------|  
B|------------------------------------------------------------------|
G|------------------9--9--9--11-11---------------------9--9--9--11--| 
D|-6--6--6--7--7----9--9--9--11-11----6--6--6--7--7----9--9--9--11--|
A|-6--6--6--7--7----7--7--7--9--9-----6--6--6--7--7----7--7--7--9---|
E|-4--4--4--5--5----------------------4--4--4--5--5-----------------|
   x  x  x  x  x    x  x  x  x  x       


[Chorus] -

Guitar 1 
e|----------------------------|
B|----------------------------|
G|--6--2----------6--2-----4--| x2
D|--6--2--2--2----6--2--2--4--|
A|--4--0--2--2----4--0--2--2--|
E|--------0--0----------0-----|


[Solo] -

Guitar 2
e|-----------------|
B|----9---9-9------|
G|--/9---9-----9\--|
D|-----------------|
A|-----------------|
E|-----------------|


[Outro]

e|----------------------------|
B|----------------------------|
G|--6--2-----4----6--2-----4--|
D|--6--2--2--4----6--2--2--4--|
A|--4--0--2--2----4--0--2--2--|
E|--------0-------------0-----|

========
 Order:
========
..Intro
..Pre-verse 
..Verse
..Chorus
..Pre-Verse
..Chorus
..Solo
..Pre-Verse
..Chorus
..Outro
..Pre-Verse

| /  slide up
| \  slide down
| x  palm mute

-------------------------------------------------------------------------------------------------

Song: Resolution

Intro
e -------------------------------------------------|
B------3-----3-----3-----3-----8-----8-----8-----8-|
G------3-----3-----3-----3-----8-----8-----8-----8-|
D------3-----3-----3-----3-----8-----8-----8-----8-|
A--1-1-1-1-1-1-1-1-1-1-1-1-6-6-6-6-6-6-6-6-6-6-6-6-|
E--------------------------------------------------|
“I like the universe,           but she messes with my words”

e -------------------------------------------------|
B------3-----3-----3-----3-----8-----8-----8-----8-|
G------3-----3-----3-----3-----8-----8-----8-----8-|
D------3-----3-----3-----3-----8-----8-----8-----8-|
A--1-1-1-1-1-1-1-1-1-1-1-1-6-6-6-6-6-6-6-6-6-6-6-6-|
E--------------------------------------------------|
“I’m not talking planets and galaxies; the distance just makes it worse.”

e ------------------------------------------------|
B------7------7------5------5------3--------------|
G------7------7------5------5------3--------------|
D------7------7------5------5------3--------------|
A--5-5-5-5-5-5-3-3-3-3-3-3-1-1-1-1-1--------------|
“I know what you’re thinking, this probably sounds rehearsed.”

Chorus
e ------------------------------------------------|
B-------------------------------------------------|
G-3-3-3-3-7-7-7-7-8-8-8-8-8-8-8-8-----------------|
D-3-3-3-3-7-7-7-7-8-8-8-8-8-8-8-8-----------------|
A-1-1-1-1-5-5-5-5-6-6-6-6-6-6-6-6-----------------|
E-------------------------------------------------|
“So let’s give it up for the new year.”

e ------------------------------------------------|
B-------------------------------------------------|
G-8-8-8-8-7-7-7-78-8-8-8-5-5-5-5------------------|
D-8-8-8-8-7-7-7-78-8-8-8-3-3-3-3------------------|
A-6-6-6-6-5-5-5-56-6-6-6-3-3-3-3------------------|
E-------------------------------------------------|
“Did this part of two have you slightly confused?”

e ------------------------------------------------|
B-------------------------------------------------|
G-3-3-3-3-7-7-7-7-8-8-8-8-8-8-8-8-----------------|
D-3-3-3-3-7-7-7-7-8-8-8-8-8-8-8-8-----------------|
A-1-1-1-1-5-5-5-5-6-6-6-6-6-6-6-6-----------------|
E-------------------------------------------------|
“Now that our things are divided”

e ------------------------------------------------|
B-------------------------------------------------|
G-8-8-8-8-7-7-7-78-8-8-8-5-5-5-5------------------|
D-8-8-8-8-7-7-7-78-8-8-8-3-3-3-3------------------|
A-6-6-6-6-5-5-5-56-6-6-6-3-3-3-3------------------|
E-------------------------------------------------|
“She refuses to speak and I’m drifting asleep at the wheel.”

Verse
e ------------------------------------------------|
B-------------------------------------------------|
G---0--------0------------------------------------|
D-0--------0------------0----------0--------------|
A-----1--------1-11--------1----------------------|
E---------------------3---------3-----1-----------|
Repeat that throughout the Verse.

”Liquids, powders and pills, not quite against my will.
The tastes test of girls, from all over the world
who refuse to except my excuses.
She put up with so much
of my madness and my self-abuse
She would tend to my wounds and fill me with food
when I'd stumble in drunk for breakfast,
She was right to take off before she was consumed”

e -----------|
B------------|
G-3-3-3-3-xx-|
D-3-3-3-3-xx-|
A-1-1-1-1-xx-|
E------------|
Use that little chord to bridge into the chorus…

Chorus (see above)

Solo
e-----------------------------------|
B -------------------------8-6------|
G—-3—5—3—-3—5—3—-3—5—3-5-7----------|
D-----------------------------------|Repeat that 4 times
A-----------------------------------|
E-----------------------------------|

e ------------------------10--10---10-|
B-10-10-10-10-10-10-10-10---10---10---|
G-------------------------------------|
D-------------------------------------|
A-------------------------------------|
E-------------------------------------|

Chorus x2

Play Intro Again

Except instead of saying “I know what you’re thinking this probably sounds rehearsed.”
He says: “You’re totally right every action was well rehearsed.”

-------------------------------------------------------------------------------------------------

Song: Feel Like Rain

Can’t find it! If anyone has it email me- jk100692@aol.com

-------------------------------------------------------------------------------------------------

Song: Make Out Kids

intro/outro:

e-----------|
b-----------|
g--8--5--7--|
d--8--5--7--|
a--6--3--5--|
e-----------|

solo thing:

e--4-3---------4-3--------4-3---------4-3--------------|
b--------4-6---------4-6--------4-6---------4-6-8-6----|
g------5-----5-----5----------5-----5-----5---------8--|
d------------------------------------------------------|
a------------------------------------------------------|
e------------------------------------------------------|


chorus:

e----------------------------|
b----------------------------|
g--5--6--8----3---------3----|
d--5--6--8-or-3--x3--3--3----|
a--3--4--6----1------3--1----|
e--------------------1-------|


bridge:

e------------------------|
b------------------------|
g--6-----8-----5---------|
d--6--6--8--8--5---------|
a--4--6--6--8--3---------|
e-----4-----6------------|

-------------------------------------------------------------------------------------------------

Song: Time Turned Fragile

Intro (0:00-0:10) - Moog (Transposed for Guitar 1)
e|-------------------------------------------------| (x4)
B|--6-4-6-4--2-4-6-4-6-8-6-4--(6-4)----------------|
G|----------------------------(only on last time)--|
D|-------------------------------------------------|
A|-------------------------------------------------|
E|-------------------------------------------------|

Intro (0:00-0:10) - Guitar 2 
e|-------------------------------------------------| (x4)
B|-------------------------------------------------|
G|--8-8-8-8--5-5-5--7-7-7--(8)-(only on last time)-|
D|--8-8-8-8--5-5-5--7-7-7--(8)---------------------|
A|--6-6-6-6--3-3-3--5-5-5--(6)---------------------|
E|-------------------------------------------------|





Verse (0:10-0:20) - Guitar 2
e|----------------------------------------| (x2)
B|----------------------------------------|
G|--8-8---------5-5---7-------------------|
D|--8-8---6-6---5-5---7(x4)-6-------------|
A|--6-6---6-6---3-3---5-----6(x4)---------|
E|--------4-4---------------4-------------|

Transition (0:20-0:31) - Guitar 1
e|---------------------------| (x4)
B|-----------4--6-4----------|
G|-------------3-------------|
D|---------------------------|
A|---------------------------|
E|---------------------------|

Transition (0:20-0:31) - Guitar 2
e|-------------------|-----------------| (x2)
B|-------------------|-----------------|
G|-------------------|------------3-3--|
D|--1/5---3h5-3-1-1--|-1/5--3h5-3------|
A|-------------------|-----------------|
E|-------------------|-----------------|





Prechorus (0:31-0:41) - Guitar 1 (Played softly or palm muted)
e|---------------------------| (x4)
B|---------------------------|
G|---------5-----------------|
D|--8------5(x4)-6-----------|
A|--8(x8)--3-----6(x4)-------|
E|--6------------4-----------|





Chorus (0:41-0:51) - Moog (Transposed for Guitar 1)
e|-------------------------------------------------| (x4)
B|--6-4-6-4--2-4-6-4-6-8-6-4--(6-4)----------------|
G|----------------------------(only on last time)--|
D|-------------------------------------------------|
A|-------------------------------------------------|
E|-------------------------------------------------|


Chorus (0:41-0:51) - Guitar 2
e|--------------------------| (x4)
B|--------------------------|
G|--8-8-8-8--5-5-5--7-7-7---|
D|--8-8-8-8--5-5-5--7-7-7---|
A|--6-6-6-6--3-3-3--5-5-5---|
E|--------------------------|





Verse (0:51-1:01) - Guitar 2
e|----------------------------------------| (x2)
B|----------------------------------------|
G|--8-8---------5-5---7-------------------|
D|--8-8---6-6---5-5---7(x4)-6-------------|
A|--6-6---6-6---3-3---5-----6(x4)---------|
E|--------4-4---------------4-------------|





Prechorus (1:02-1:12) - Guitar 1 (Played softly or palm muted)
e|---------------------------| (x4)
B|---------------------------|
G|---------5-----------------|
D|--8------5(x4)-6-----------|
A|--8(x8)--3-----6(x4)-------|
E|--6------------4-----------|

(1:12-1:14) (1:17-1:29) (1:22-1:24) - Guitar 2 (Played loudly)
e|----------------------------------------| (x2 each time)
B|----------------------------------------|
G|----------------------------------------|
D|----------------3-----6-6---------------|
A|----------------3(x4)-6-6---------------|
E|----------------1-----4-4---------------|

(1:15-1:17) (1:20-1:22) (1:25-1:27) - Guitar 2 
e|----------------------------------------| 
B|----------------------------------------|
G|-----------5------6---------------------|
D|-----------5-(x8)-6-(x8)----------------|
A|-----------3------4---------------------|
E|----------------------------------------|

(1:15-1:17) (1:20-1:22) (1:25-1:27) - Moog (Transposed for Guitar 1)
e|--3-------1-3-1-----| 
B|----4-1-4-------4---|
G|--------------------|
D|--------------------|
A|--------------------|
E|--------------------|





Chorus (1:28-1:40) - Moog (Transposed for Guitar 1)  
e|-------------------------------------------------| (x4)
B|--6-4-6-4--2-4-6-4-6-8-6-4--(6-4~)---------------|
G|----------------------------(only on last time)--|
D|-------------------------------------------------|
A|-------------------------------------------------|
E|-------------------------------------------------|

Chorus (1:28-1:40) - Guitar 2
e|------------------------------------------------| (x4)
B|------------------------------------------------|
G|--8-8-8-8--5-5-5--7-7-7--(8~)-(last time only)--|
D|--8-8-8-8--5-5-5--7-7-7--(8~)-------------------|
A|--6-6-6-6--3-3-3--5-5-5--(6~)-------------------|
E|------------------------------------------------|





Interlude 1 (1:40-1:50) - Guitar 1 
e|-------------------------------------| (x2)
B|-------------------------------------|
G|--8-8-8-8----------------------------|
D|--8-8-8-8--8-8-8-8--6-6-6-6-6-6-6-6--|
A|--6-6-6-6--8-8-8-8--6-6-6-6-6-6-6-6--|
E|-----------6-6-6-6--4-4-4-4-4-4-4-4--|

Interlude 1 (1:51-1:59) (Play staccato) - Guitar 1 and 2
e|------------------------------------------|
B|------------------------------------------|
G|--8-------------------8~--10~-------------|
D|--8-----3-6------6----8~--10~-------------|
A|--6-----3-6------6----6~--8~--------------|
E|--------1-4------4------------------------|






Chorus (2:00-2:09) - Moog (Transposed for Guitar 1)
e|----------------------------| (x4)
B|--6-4-6-4--2-4-6-4-6-8-6-4--|
G|----------------------------|
D|----------------------------|
A|----------------------------|
E|----------------------------|

Chorus (2:00-2:09) - Guitar 2
e|----------------------------| (x4)
B|----------------------------|
G|--8-8-8-8--5-5-5--7-7-7-----|
D|--8-8-8-8--5-5-5--7-7-7-----|
A|--6-6-6-6--3-3-3--5-5-5-----|
E|----------------------------|

(2:10-2:12) - Guitar 2
e|--------------------|--------------------|
B|--------------------|--------------------|
G|--------------------|--5------6------8~--|
D|--3-3-3-3--3-3-3-3--|--5-(x8)-6-(x8)-8~--|
A|--3-3-3-3--3-3-3-3--|--3------4------6~--|
E|--1-1-1-1--1-1-1-1--|--------------------|

(2:13-2:15) - Moog (Transposed for Guitar 1)
e|--3-------1-3-1-------------| 
B|----4-1-4-------4~----------|
G|----------------------------|
D|----------------------------|
A|----------------------------|
E|----------------------------|





Interlude 2 (2:16-3:06) -  Guitar 1
e|----------------------------| Continously Repeat
B|--4-4-4-4--8p6h8-9-4-4------| 
G|----------------------------|
D|----------------------------|
A|----------------------------|
E|----------------------------|

Interlude 2 (2:26-3:06) - Guitar 2
e|----------------------------| Continuously Repeat 
B|----------------------------|
G|-1/8----8/1-----------------|
D|----------------------------|
A|----------------------------|
E|----------------------------|

Interlude 2 (2:27-2:45) - Guitar 3
e|----------------------------| Continuously Repeat Until Next Segment
B|----------------------------|
G|-------1----5----8----------|
D|----------------------------|
A|----------------------------|
E|----------------------------|

Interlude 2 (2:46-3:07) - Guitar 3
e|--4---4---6---4---(x3)--4---4---4---4----| (x2) 
B|----4---4---4---4---------4---4---4---4--|
G|-----------------------------------------|
D|-----------------------------------------|
A|-----------------------------------------|
E|-----------------------------------------|




I realize that the number of counts is off in this portion of the tablature, 
but this is a tricky part to tab out.  As mentioned before, any help would be greatly appreciated.

Ending (3:07-3:46) - Guitar 1
e|-----4----4----4----4-----6----6----6----6-----8----8----8----8--| 
B|--4-4--4-4--4-4--4-4---4-4--4-4--4-4--4-4---4-4--4-4--4-4--4-4---|
G|-----------------------------------------------------------------|
D|-----------------------------------------------------------------|
A|-----------------------------------------------------------------|
E|-----------------------------------------------------------------|

e|-----6----6----4----4--| (x4)
B|--4-4--4-4--4-4--4-4---|
G|-----------------------|
D|-----------------------|
A|-----------------------|
E|-----------------------|

Piano Chords (3:07-3:48) - Piano/Guitar 2
e|--4----1----3----4---| (x4) 
B|--4----1----4----4---|
G|--5----1----5----5---|
D|--6----3----5----6---|
A|--6----3----3----6---|
E|--4----1----x----4---|


Ending (3:48-4:15) Any Guitar
e|--------------------| Repeat as Desired
B|---8~--7~--8~--7~---|
G|--------------------|
D|--------------------|
A|--------------------|
E|--------------------|

-------------------------------------------------------------------------------------------------

Song: Let’s Get Fucked Up and Die

verse
e|--------------------------------------------------------|
B|--------------------------------------------------------|
G|--6-x8--5-x8--6-x8--------------6-x8--5-x8--3-x8--------|
D|--6-----5-----6-----3-x4--4-x4--6-----5-----3-----6-x8--|
A|--4-----3-----4-----3-----4-----4-----3-----1-----6-----|
E|--------------------1-----2-----------------------4-----|
Pm  .........................................................
Let's get f***ed up and die..
I'm speaking figuratively, of course..
Like the last time that I committed suicide.. social suicide..

e|------------------------------------------------------------|
B|------------------------------------------------------------|
G|--6-x8--5-x8--6-x8--------------6-x8--5-x8--3-x8------------|
D|--6-----5-----6-----3-x4--4-x4--6-----5-----3-----66666666--|
A|--4-----3-----4-----3-----4-----4-----3-----1-----66666666--|
E|--------------------1-----2-----------------------44444444--|
Pm  ............................................    .....
Yeah, so I'm already dead on the inside,
But I can still pretend with my memories and photographs,
I've learned to love the lie.


CHORUS
e|--------------------------------------------------------------------------|
B|--6----6----6---9----9--------------------------------------------------|
G|---6----6--------8----8---8----10------10------------10-----13-10-----|x3
D|---------------------------------11------11----11------11---------13-11--|
A|4----4----4----6----6----6---8-------8-------8-----8-------8-------------|
E|--------------------------------------------------------------------------|

e|----------------------------------------||-----------|
B|----6------6------6-----9------9--------||----13-\---|
D|------6------6------------8------8----8-||-13-----x16|
G|----------------------------------------||-------/---|
A|--4------4------4-----6------6------6---||-----------|
E|----------------------------------------||-----------|

Guitar 2 
e|-------------------------|
B|-------------------------|
G|-------------------------|
D|----4----6----8----11----|x3
A|----4----6----8----11----|
E|----2----4----6----9-----|
     
e|-----------------------------------------------|
B|-----------------------------------------------|
G|-----------------------------------------------|
D|-4----6----66666666-66666666-66666666-66666666-|
A|-4----6----66666666-66666666-66666666-66666666-|
E|-2----4----44444444-44444444-44444444-44444444-|
           pm........ ........    ..... ........
I wanna know what it's like to be awkward and innocent, not belligerent.
I wanna know how it feels to be useful and pertinent and have common sense.. yeah
Let me in, let me in to the club, cuz I wanna belong,
And I need to get strong, and if memory serves,
I'm addicted to words and they're useless.
 (In this department)


verse -distortion
e|-------------------------------------------------------------|
B|-------------------------------------------------------------|
G|---66666666--5-----6-----------------6-----5-----3-----------|
D|---66666666--5-x8--6-x8--3-x4--4-x4--6-x8--5-x8--3-x8--6-x8--|
A|---44444444--3-----4-----3-----4-----4-----3-----1-----6-----|
E|-------------------------1-----2-----------------------4-----|
  pm  ........................................................
Let's get fucked up and die..
I'm riding hard on the last legs of every lie,
And the BMX bike of my life is about to explode, I'm about to explode.
e|------------------------------------------------------------|
B|------------------------------------------------------------|
G|--6-x8--5-x8--6-x8--------------6-x8--5-x8--3-x8------------|
D|--6-----5-----6-----3-x4--4-x4--6-----5-----3-----66666666--|
A|--4-----3-----4-----3-----4-----4-----3-----1-----66666666--|
E|--------------------1-----2-----------------------44444444--|
Pm  ............................................    .....
I'm a mess, I'm a wreck.
I am perfect, and I have learned to accept all my problems and short comings,
Because I am so visceral, yet deeply inept.

CHORUS
e|-------------------------|
B|-------------------------|
G|-------------------------|x3
D|----4----6----8----6-----|
A|----4----6----8----6-----|
E|----2----4----6----4-----|
     
e|--------------------------------------------------|
B|--------------------------------------------------|
G|--------------------------------------------------|
D|-4----6----66666666-66666666-66666666-66666666----|
A|-4----6----66666666-66666666-66666666-66666666----|
E|-2----4----44444444-44444444-44444444-44444444----|
           pm........ ........    ..... ........
I want to thank you for being a part of my the forget-me-nots and marigolds..
And all the things that don't get old..
Is it legal to do this? I surely don't know.
It's the only way I have learned to express myself around other peoples' descriptions of life..
I'm afraid I'm alone and entirely useless...
(in this department)

verse -distortion
e|-------------------------------------------------------------|
B|-------------------------------------------------------------|
G|---66666666--5-----6-----------------6-----5-----3-----------|
D|---66666666--5-x8--6-x8--3-x4--4-x4--6-x8--5-x8--3-x8--6-x8--|
A|---44444444--3-----4-----3-----4-----4-----3-----1-----6-----|
E|-------------------------1-----2-----------------------4-----|
  pm  ........................................................
Let's get fucked up and die.
For the last time I'm feeling
we'll try not to smile
As we cover our heads and drink heavily into the nights
That’s no shocking and surprise.

e|------------------------------------------------------------|
B|------------------------------------------------------------|
G|--6-x8--5-x8--6-x8--------------6-x8--5-x8--3-x8------------|
D|--6-----5-----6-----3-x4--4-x4--6-----5-----3-----6---------|
A|--4-----3-----4-----3-----4-----4-----3-----1-----6---------|
E|--------------------1-----2-----------------------4---------|
Pm .............................................    .
I believe that I can, overcome this and beat everything in the end
But I choose to abuse for the time being,
maybe I'll win, but for now I've decided to die.

CHORUS 
e|------------------------|
B|------------------------|
G|------------------------|
D|----4----6----8----6----|x2
A|----4----6----8----6----|
E|----2----4----6----4----|
Sister soldier
You’ve been such a positive influence on my mental frame
If I could ever repay you, 
I would, but I'm hard up for cash
And my memory lacks initiative.

strumming
e|---------------------------------------|
B|---------------------------------------|
G|---------------------------------------|
D|--4----6-----8-----6----4----6---------|
A|--4----6-----8-----6----4----6---------|
E|--2----4-----6-----4----2----4---------|
God damn the liquor stores' closed,
we were so close to scoring
it hurts, it destroys til it kills..
I am tired and hungry and totally useless.


Strumming and palm mutes toward end.
e|----------------|
B|----------------|
G|--6-------------|
D|--6-------------|
A|--4-------------|
E|----------------|

-------------------------------------------------------------------------------------------------

Song: Better Open The Door

intro/chorus
guitar
-----------------------------------|
-----------------------------------|
-4-----9------------9-----88-------|
-4-x8--9-x8--6------9-x6--88-------|  X2
-2-----7-----6--x8--7-----66-------|
-------------4---------------------|

intro/chorus
keyboard (boog)
---------------------------------------------------|
------------------------7--------------------------|
--6-8---6-8---6-8---6-8----6-8---6-8---6-8---6-8---|
-------------------------------------------------9-|
------9-----9-----9------------9-----9-----9-------|
---------------------------------------------------|

prechorus-bass

chorus (above)

fill 1
-------------------------|
-----------------5-------|
--4444444444444--6-------|
--4444444444444----------|
--2222222222222----------|
pm.............----------|

verse
guitar
----------------------------------------------------------------------|
----------------------------------------------------------------------|
--4-------------4------------443344-----4-------------4---------------|
--4-x16--6------4-x16--6-----------44---4-x16--6------4-x16--6--------|
--2------6-x16--2------6-x8-------------2------6-x16--2------6-x16----|
pm.------4------.------4----------------.------4-------------4--------|
         .             .                       .

fill 2
--------------------|
--------------------|
-4444444499999999---|
-4444444499999999---|
-2222222277777777---|
--------------------|

chorus

verse

prechorus
----------------------               ----|
----------------------               ----|
-44444444-------------               ----|
-44444444-6666-4444---x4 then end on -2--|
-22222222-6666-4444---               -2--|
----------4444-2222---               -0--|

chorus

bridge (clear)
----------------------------------------|
----------------------------------------|
-11111111-66666666-11111111-44444444----|
----------------------------------------|
----------------------------------------|
----------------------------------------|

2nd guitar (in background-also clear)
-------------------------------|
-7-9-7-9--x6--7-9-7-12-11-x4---|
--------8----------------------|
-------------------------------|
-------------------------------|
-------------------------------|

outro
--------------------------|
--------------------------|
-44444444-----------------|
-44444444--6666--4444-----|
-22222222--6666--4444-----|
-----------4444--2222-----|

intro
prechorus
chorus
fill 1
verse
fill 2
chorus
verse
prechorus
chorus
bridge
outro

-------------------------------------------------------------------------------------------------

Song: Together We’ll Ring In The New Year

|- VERSE (16 measures)
|
| LEFT CHANNEL GUITAR Repeat this 4 times
|                                          + 4 +
| e--------|--------|------------|---------------|
| B--------|--------|------------|---------------|
| G--------|--------|------------|---------------|
| D--6-----|--6-----|------------|---------------|
| A--6-----|--6-----|--10----6---|--10--6--------|
| D--6-----|--6-----|--10----6---|--10--6--5-6/3-|
|
| RIGHT CHANNEL GUITAR (This one is harder to play) Repeat 4 times
|
|   1 + 2 + 3 + 4 + 2 + 2 + 3 + 4 + 3 + 2 + 3 + 4 + 4 + 2 + 3 + 4 +
| e-----------------------------------------------------------------|
| B-----------------------------------------------------------------|
| G-8-8-8-8-8-8-8-8-5-5-5-5-5-5-5-5-6-5-6-5-6-5-6-5-6-5-6-5-6/8-----|
| D-6-6-6-6-6-6-6-6-6-6-6-6-6-6-6-6-6-6-6-6-6-6-6-6-6-6-6-6-6-----6-|
| A-6-6-6-6-6-6-6-6-----------------------------------------------6-|
| D-----------------------------------------------------------------|
|
| Throughout the verses, especially the final few seconds, there is a guitar playing a few
| notes on the high e string like this : e-8---4
|-

VERSE-CHORUS TRANSITION ( 2 measures )

e--------|--------|
B--------|--------|
G--------|--------|
D--------|--------|
A-3------|-4------|
D-3------|-4------|

CHORUS ( 8 measures ) 0:35
play this part twice
e--------|--------|--------|--------|
B--------|--------|--------|--------|
G----6---|-8--6---|----6---|--------|
D-6--6---|-8--6---|-6--6---|-4--1---|
A-6--4---|-6--4---|-6--4---|-4--1---|
D-6------|--------|-6------|-4--1---|

CHORUS-VERSE TRANSITION

e--------|--------|
B--------|--------|
G--------|-6------|
D--------|-6------|
A-3------|-4------|
D-3------|--------|

Play VERSE again (0:55)
PLAY VERSE-CHORUS TRANSITION again (1:27)
Play CHORUS again (1:30)
Play this part (2:06)

  1 + 2 + 3 + 4 + 2 + 2 + 3 + 4 + 3 + 2 +
e-----8-------8---------------------------|
B---9---9--9----9---9---11--9---9---------|
G-8-------8-8-----8---8---8---8---6-6-6-5-|
D-----------------------------------------|
A-----------------------------------------|
D-----------------------------------------|

-------------------------------------------------------------------------------------------------

Song: Hangman

Intro

Moog part for guitar  (Played by Mark Hoppus)
(0:00 - 0:13)
e|-----|
B|-----|
G|-----|
D|-8~--|
A|-----|
D|-----|

Guitar 1
(0:10 - 0:23)
e|---------------|
B|---------------|
G|---------------|
D|--8------------| x4
A|-------11-10---|
D|-----8-------8-|

Moog
(0:13 - 0:23)
e|-----|
B|-----|
G|-----|
D|-8b~-|   This note is in other parts of the song
A|-----|
D|-----|

Guitar 2
(0:17 - 0:20)
e|---------------|
B|---------------|
G|--8-----5------|
D|--8-x12-5-x3---|  x1  
A|--6-----3------|
D|---------------|

Guitar 2
(0:20 - 0:24)
e|---------------|
B|---------------|
G|--8------------|
D|--8-x12--xxx---|  x1
A|--6------xxx---|
D|---------xxx---|


Verse 1

Guitar 1
(0:23 - 0:37)
e|---------------|
B|---------------|
G|---------------|
D|--8------------| x4
A|-------11-10---|
D|-----8-------8-|

Guitar 2
(0:23 - 0:34)
e|---------------|
B|---------------|
G|--8-----5------|
D|--8-x12-5-x3---|  x3
A|--6-----3------|
D|---------------|

Guitar 2
(0:34 - 0:37)
e|---------------|
B|---------------|
G|--8------------|
D|--8-x12--xxx---|  x1
A|--6------xxx---|
D|---------xxx---|

Chorus 1

Guitar 1 + 2
(0:38 - 0:50)
e|-------------------------------------------------------------|
B|-------------------------------------------------------------|
G|---8---------------8--------------8--------------8-----------|
D|---8-x8-5----6-----8-x8-5----1----8-x8-5----6----8-x4-5---6~-|
A|---6----5-x4-6-x4--6----5-x4-1-x4-6----5-x4-6-x4-6----5x4-6~-|
D|--------5----6----------5----1---------5----6---------5---6~-|

Guitar 1
(0:50 - 0:52)
e|--------------------|
B|--------------------|
G|--------------------|
D|--------------------|  x1
A|--8-6-8-6-8-10-8-6~-|
D|--------------------|

Guitar 2
(0:53 - 0:56)
e|---------------|
B|---------------|
G|--8-----5------|
D|--8-x12-5-x3---|  x1
A|--6-----3------|
D|---------------|

Guitar 2
(0:57 - 1:00)
e|---------------|
B|---------------|
G|--8------------|
D|--8-x12--xxx---|  x1
A|--6------xxx---|
D|---------xxx---|

Verse 2 - Same as verse 1 - (1:00 - 1:14)

Guitar 1 + 2
(1:14 - 1:42)
e|-------------------------------------------------------------|
B|-------------------------------------------------------------|
G|-8---------------8--------------8--------------8-------------|
D|-8-x8-5----6-----8-x8-5----1----8-x8-5----6----8-x4-5---1----|x2
A|-6----5-x4-6-x4--6----5-x4-1-x4-6----5-x4-6-x4-6----5x4-1-x4-|
D|------5----6----------5----1---------5----6---------5---1----|


Bridge

Guitar 2
(1:42 - 2:02)
e|-----------------------------------------|
B|-----------------------------------------|
G|-----------------------------------------|
D|--6-----5-----3-----1-3--6-----5-----3~--|  x1
A|--6-x16-5-x16-3-x14-1-3--6-x16-5-x16-3~--|
D|--6-----5-----3-----1-3--6-----5-----3~--|

Chorus 3

Guitar 1 + 2
(2:03 - 2:20)
e|-----|
B|-----|
G|--8--|
D|--8--|  x1  Keep playing this note over and over until 2:20
A|--6--|
D|-----|

Guitar 1 + 2
(2:20 -2:31)
e|------------|
B|------------|
G|------------|
D|--3----1~---|  x2
A|--3-x4-1~---|
D|--3----1~---|

Guitar 1 + 2
(2:47 -2:48)
e|--------|
B|--------|
G|--------|
D|--xxxx--|  x1
A|--xxxx--|
D|--xxxx--|

-------------------------------------------------------------------------------------------------

Song: Hold Me Down

Intro/Verse(guitar 1) clean
E--------------------------------------------------------------------|x2
B--------------------------------------------------------------------|
G--6-8-6----6-----6--6-8-6----6--------------------------------------|
D---6---6----6--6-----6---6----6--6----------------------------------|
A-4------4-3---6-4--4------4-3---6-4h6p4-----------------------------|
E--------------------------------------------------------------------|
"I found a letter that said..."

verse pt. 2(guitar 1) clean
E--------------------------------------------------------------------|
B----6---6--6-6-6-----6-6-6-6-6-6------------------------------------|
G----6---6--6-6-6-----6-6-6-6-6-6------------------------------------|
D-------6------------------------------------------------------------|
A----4----------------4----------------------------------------------|
E-2-2--------------2-2-----------------------------------------------|
"Save for a few of those late night episodes..."

Verse x 1

Interlude(guitar 1) slightly distorted
E--------------------------------------------------------------------|
B--------------------------------------------------------------------|
G-6---5---6---5---6---5---6---5--------------------------------------|
D-6---5---6---5---6---5---6---5--------------------------------------|
A-4---3---4---3---4---3---4---3--------------------------------------|
E--------------------------------------------------------------------|

Interlude(guitar 2) slightly distorted
E--------------------------------------------------------------------|x2
B-------------------------------------------------------9------------|
G-5-6-5--8-6---5-6---5-6/8-6/8--5-6-5--8-6---5-6---5-6-8-------------|
D--------------------------------------------------------------------|
A--------------------------------------------------------------------|
E--------------------------------------------------------------------|

Verse(guitar 2) slightly distorted (guitar 1 plays the normal verse riff)
E--------------------------------------------------------------------|
B--------------------------------------------------------------------|
G-6-6-6-6-6-6-6-6-------------4-4------------------------------------|
D-6-6-6-6-6-6-6-6-6-6-6-8-8-8-4-4------------------------------------|
A-4-4-4-4-4-4-4-4-6-6-6-8-8-8-2-2------------------------------------|
E-----------------4-4-4-6-6-6----------------------------------------|
pm. . . . . . . . . . . . . . . .

Pre-chorus(both guitars) slightly distorted
E--------------------------------------------------------------------|
B--------------------------------------------------------------------|
G-3~--------3~--------3~-------3~------------------------------------|
D-4~--------4~--------4~-------4~------------------------------------|
A-4~--------4~--------4~-------4~------------------------------------|
E-2~--------2~--------2~-------2~------------------------------------|
"You hold me down..."

Chorus(guitar 1) clean
E----------------------------2---------------------------------------|x4
B----------------------------2---------------------------------------|
G-6-66-5-6--5---10--910------3---------------------------------------|
D-6-66-6-66-5-5/10-1010---4------------------------------------------|
A-4-44-4-44-3-3/-8--8-88\-4------------------------------------------|
E-------------------------2-2----------------------------------------|
"You're the echos of my everything..."

On the last measure guitar 2 comes in slightly distorted.
E--------------------------------------------------------------------|x2
B-10--10--10--10-----------------------------------------------------|
G--------------------------------------------------------------------|
D---9---9---9---9----------------------------------------------------|
A--------------------------------------------------------------------|
E--------------------------------------------------------------------|

Interlude x1
Verse with both guitars
Pre-chorus again

Last Chorus(guitar 2) slightly distorted
Guitar 1 plays this part the same as before but slightly distorted.
E-------------------2-2---2-2----------------------------------------|
B-------------------2-2---2-2----------------------------------------|
G-6-66-666-5-5------3-3---3-3----------------------------------------|
D-6-66-666-5-53-333-4-4---4-4----------------------------------------|
A-4-44-444-3-33-333-4-4---4-4----------------------------------------|
E-------------1-111-2-2---2-2----------------------------------------|

A third guitar does this the last measure of each
"How will I break the news to you?" thing.
E--------------------------------------------------------------------|x2
B--------------------------------------------------------------------|
G-10--10--10--10-----------------------------------------------------|
D--------------------------------------------------------------------|
A---9---9---9---9----------------------------------------------------|
E--------------------------------------------------------------------|

Outro is just the chorus, clean.

That’s It!!!!
8 comments total. Showing first comments.
0 reply
Revlin wrote on July 12 2006, 03:54 pm

Great!

0 reply
ApplesforAndrew wrote on July 12 2006, 10:05 pm

Maybe you can add Invisible Monsters to it.

0 reply
brian57 wrote on July 15 2006, 02:34 pm

did you write any of these or just copy and paste everyone elses?

I want to post or [tab]
guest
You may want to rate the tab now too:
select rating
Please do not post tabs as comments. Select "correction" instead!