Oops, an error
Loading. Please wait.

Last Night Tab

ver2
ver2

Whole song

More versions @911Tabs.com
3,819 views 3 this week
no commentswrite comment
1 2 3 4 5
accurate
x 1
Autoscroll
+/-
esc
set tempo
stop
Contributor
Difficulty
novice
Hey! There's an official Ultimate Guitar app which is ideal
for learning songs when you're away from computer. Get the app
WARNING: You are trying to view
                                    content from Ultimate-Guitar.com
                                    in an unauthorized application,
                                    which is prohibited.

                                    Please use an official Ultimate
                                    Guitar Tabs application for iPhone,
                                    iPad or Android to access legitimate
                                    chords, guitar, bass, and drum tabs
                                    from Ultimate-Guitar.com database.

                                    Type "ultimate guitar tabs" in Apple
                                    App Store's or Android Market's
                                    search to find the application.
Motion city Soundtrack
Last Night
Even If It Kills me

Tuning: half step down
Guitar 1: Josh Cain
Guitar 2: Justin Pierre

Notes: For most of Josh's part he plays with his fingers, stroking using his thumb and 
finger, it's kind of difficult at first but you'll get the hang of it.


INTRO:

Guitar 1(clean with slight reverb)

|-----------------------------------------|
|-----------------------------------------|
|----11--11--11--11--11--11--11--11-------|
|----12--12--12--12--12--12--12--12-------| X4
|-----------------------------------------|
|--10--10--10--10--10--10--10--10---------|


VERSE 1
(I'm still frustrated...)
|-------------------------------------|-----------------------------------|
|-------------------------------------|-----------------------------------|
|----11--11--11--11--11--11--11--11---|--/-12--12--12--12--12--12--12--12\|
|----12--12--12--12--12--12--12--12-X3|-----------------------------------|
|-------------------------------------|-----------------------------------|
|--10--10--10--10--10--10--10--10-----|-/12--12--12--12--12--12--12--12\--|

(...Halftime, I'm sick of the bends...)
|-------------------------------|----------------------------|
|-------------------------------|----------------------------|
|----\7--7--7--7--7--7--7--7----|---6--6--6--6--6--6--6--6/--|
|----------------------------X3-|----------------------------|
|-------------------------------|----------------------------|
|--\7--7--7--7--7--7--7--7------|5--5--5--5--5--5--5--5/-----|


(My panic research...)
|--------------------------------------|-----------------------------------|
|--------------------------------------|-----------------------------------|
|----/11--11--11--11--11--11--11--11---|---/12--12--12--12--12--12--12--12\|
|----/12--12--12--12--12--12--12--12-X3|-----------------------------------|
|--------------------------------------|-----------------------------------|
|--/10--10--10--10--10--10--10--10-----|-/12--12--12--12--12--12--12--12\--|

(...Myself...)
|-------------------------------|----------------------------|
|-------------------------------|----------------------------|
|----\7--7--7--7--7--7--7--7----|--6--6--6--6--6--6--6--6/---|
|----------------------------X3-|----------------------------|
|-------------------------------|----------------------------|
|--\7--7--7--7--7--7--7--7------|5--5--5--5--5--5--5--5/-----|

CHORUS 1

(...ends/I wait...)
|-----------------------------|------------------------------|
|-----------------------------|------------------------------|
|---2--2--2--2--2--2--2--2----|--6--6--6--6--6--6--6--6------|
|---------------------------X2|--------------------------X2--|
|-----------------------------|------------------------------|
|--3--3--3--3--3--3--3--3-----|5--5--5--5--5--5--5--5--------|

(..tired to play...)
|-------------------------------|----------------------------|
|-------------------------------|----------------------------|
|----\7--7--7--7--7--7--7--7----|--6--6--6--6--6--6--6--6----|
|----------------------------X3-|----------------------------|
|-------------------------------|----------------------------|
|--\7--7--7--7--7--7--7--7------|5--5--5--5--5--5--5--5------|

(I'll suffocate...)
|-----------------------------|------------------------------|
|-----------------------------|------------------------------|
|---2--2--2--2--2--2--2--2----|--6--6--6--6--6--6--6--6------|
|---------------------------X2|--------------------------X2--|
|-----------------------------|------------------------------|
|--3--3--3--3--3--3--3--3-----|5--5--5--5--5--5--5--5--------|

*THIS IS WHERE THE WHOLE BAND COMES IN*
|-------------------------------------|-----------------------------------|
|-------------------------------------|-----------------------------------|
|----11--11--11--11--11--11--11--11---|--/-12--12--12--12--12--12--12--12\|
|----12--12--12--12--12--12--12--12-X3|-----------------------------------|
|-------------------------------------|-----------------------------------|
|--10--10--10--10--10--10--10--10-----|-/12--12--12--12--12--12--12--12\--|

|-------------------------------|----------------------------|
|-------------------------------|----------------------------|
|----\7--7--7--7--7--7--7--7----|---6--6--6--6--6--6--6--6/--|
|----------------------------X3-|----------------------------|
|-------------------------------|----------------------------|
|--\7--7--7--7--7--7--7--7------|5--5--5--5--5--5--5--5/-----|

|--------------------------------------|-----------------------------------|
|--------------------------------------|-----------------------------------|
|----/11--11--11--11--11--11--11--11---|--/-12--12--12--12--12--12--12--12\|
|-----12--12--12--12--12--12--12--12-X3|-----------------------------------|
|--------------------------------------|-----------------------------------|
|--/10--10--10--10--10--10--10--10-----|-/12--12--12--12--12--12--12--12\--|

|-------------------------------|----------------------------|
|-------------------------------|----------------------------|
|----\7--7--7--7--7--7--7--7----|---6--6--6--6--6--6--6--6/--|
|----------------------------X3-|----------------------------|
|-------------------------------|----------------------------|
|--\7--7--7--7--7--7--7--7------|5--5--5--5--5--5--5--5/-----|

VERSE 2

(No time for half...)
|-------------------------------------|-----------------------------------|
|-------------------------------------|-----------------------------------|
|----11--11--11--11--11--11--11--11---|--/-12--12--12--12--12--12--12--12\|
|----12--12--12--12--12--12--12--12-X3|-----------------------------------|
|-------------------------------------|-----------------------------------|
|--10--10--10--10--10--10--10--10-----|-/12--12--12--12--12--12--12--12\--|

(...Spotlight and flee...)
|-------------------------------|----------------------------|
|-------------------------------|----------------------------|
|----\7--7--7--7--7--7--7--7----|---6--6--6--6--6--6--6--6/--|
|----------------------------X3-|----------------------------|
|-------------------------------|----------------------------|
|--\7--7--7--7--7--7--7--7------|5--5--5--5--5--5--5--5/-----|


(Cheap flights...)
|--------------------------------------|-----------------------------------|
|--------------------------------------|-----------------------------------|
|----/11--11--11--11--11--11--11--11---|---/12--12--12--12--12--12--12--12\|
|----/12--12--12--12--12--12--12--12-X3|-----------------------------------|
|--------------------------------------|-----------------------------------|
|--/10--10--10--10--10--10--10--10-----|-/12--12--12--12--12--12--12--12\--|

(...nonstop...)
|-------------------------------|----------------------------|
|-------------------------------|----------------------------|
|----\7--7--7--7--7--7--7--7----|--6--6--6--6--6--6--6--6/---|
|----------------------------X3-|----------------------------|
|-------------------------------|----------------------------|
|--\7--7--7--7--7--7--7--7------|5--5--5--5--5--5--5--5/-----|

CHORUS 2

(...I haunt...)
|-----------------------------|------------------------------|
|-----------------------------|------------------------------|
|---2--2--2--2--2--2--2--2----|--6--6--6--6--6--6--6--6------|
|---------------------------X2|--------------------------X2--|
|-----------------------------|------------------------------|
|--3--3--3--3--3--3--3--3-----|5--5--5--5--5--5--5--5--------|

(..of medicine...)
|-------------------------------|----------------------------|
|-------------------------------|----------------------------|
|----\7--7--7--7--7--7--7--7----|--6--6--6--6--6--6--6--6----|
|----------------------------X3-|----------------------------|
|-------------------------------|----------------------------|
|--\7--7--7--7--7--7--7--7------|5--5--5--5--5--5--5--5------|

(choking back...)
|-----------------------------|------------------------------|
|-----------------------------|------------------------------|
|---2--2--2--2--2--2--2--2----|--6--6--6--6--6--6--6--6------|
|---------------------------X2|--------------------------X2--|
|-----------------------------|------------------------------|
|--3--3--3--3--3--3--3--3-----|5--5--5--5--5--5--5--5--------|

POST CHORUS

|-----------------------------------------|
|-----------------------------------------|
|----11--11--11--11--11--11--11--11-------|
|----12--12--12--12--12--12--12--12-------| X4
|-----------------------------------------|
|--10--10--10--10--10--10--10--10---------|

VERSE 3

(Her cat was...)
|-------------------------------------|-----------------------------------|
|-------------------------------------|-----------------------------------|
|----11--11--11--11--11--11--11--11---|--/-12--12--12--12--12--12--12--12\|
|----12--12--12--12--12--12--12--12-X3|-----------------------------------|
|-------------------------------------|-----------------------------------|
|--10--10--10--10--10--10--10--10-----|-/12--12--12--12--12--12--12--12\--|

(...our door, the panic...)
|-------------------------------|----------------------------|
|-------------------------------|----------------------------|
|----\7--7--7--7--7--7--7--7----|---6--6--6--6--6--6--6--6/--|
|----------------------------X3-|----------------------------|
|-------------------------------|----------------------------|
|--\7--7--7--7--7--7--7--7------|5--5--5--5--5--5--5--5/-----|


(I search...)
|--------------------------------------|-----------------------------------|
|--------------------------------------|-----------------------------------|
|----/11--11--11--11--11--11--11--11---|---/12--12--12--12--12--12--12--12\|
|----/12--12--12--12--12--12--12--12-X3|-----------------------------------|
|--------------------------------------|-----------------------------------|
|--/10--10--10--10--10--10--10--10-----|-/12--12--12--12--12--12--12--12\--|

(...carpet...)
|-------------------------------|----------------------------|
|-------------------------------|----------------------------|
|----\7--7--7--7--7--7--7--7----|--6--6--6--6--6--6--6--6/---|
|----------------------------X3-|----------------------------|
|-------------------------------|----------------------------|
|--\7--7--7--7--7--7--7--7------|5--5--5--5--5--5--5--5/-----|

CHORUS 3

(...As Autumn...)
|-----------------------------|------------------------------|
|-----------------------------|------------------------------|
|---2--2--2--2--2--2--2--2----|--6--6--6--6--6--6--6--6------|
|---------------------------X2|--------------------------X2--|
|-----------------------------|------------------------------|
|--3--3--3--3--3--3--3--3-----|5--5--5--5--5--5--5--5--------|

(..back on me...)
|-------------------------------|----------------------------|
|-------------------------------|----------------------------|
|----\7--7--7--7--7--7--7--7----|--6--6--6--6--6--6--6--6----|
|----------------------------X3-|----------------------------|
|-------------------------------|----------------------------|
|--\7--7--7--7--7--7--7--7------|5--5--5--5--5--5--5--5------|

(I climb...)
|-----------------------------|------------------------------|
|-----------------------------|------------------------------|
|---2--2--2--2--2--2--2--2----|--6--6--6--6--6--6--6--6------|
|---------------------------X2|--------------------------X2--|
|-----------------------------|------------------------------|
|--3--3--3--3--3--3--3--3-----|5--5--5--5--5--5--5--5--------|

BRIDGE

|--------------------------------------|
|--------------------------------------|
|----/11--11--11--11--11--11--11--11---|
|----/12--12--12--12--12--12--12--12-X4|
|--------------------------------------|
|--/10--10--10--10--10--10--10--10-----|

|-----------------------------|------------------------------|
|-----------------------------|------------------------------|
|---2--2--2--2--2--2--2--2----|--6--6--6--6--6--6--6--6------|
|---------------------------X2|--------------------------X2--|
|-----------------------------|------------------------------|
|--3--3--3--3--3--3--3--3-----|5--5--5--5--5--5--5--5--------|

(My body aches...)
|-------------------------------|-------------------------------|
|-------------------------------|-------------------------------|
|-----7--7--7--7--7--7--7--7----|-----7--7--7--7--7--7--7--7----|
|----------------------------X2-|-------------------------------|
|-------------------------------|-------------------------------|
|---0--0--0--0--0--0--0--0------|---7--7--7--7--7--7--7--7------|

(somersaults...)
|-----------------------------|------------------------------|
|-----------------------------|------------------------------|
|---2--2--2--2--2--2--2--2----|--6--6--6--6--6--6--6--6------|
|---------------------------X2|--------------------------X2--|
|-----------------------------|------------------------------|
|--3--3--3--3--3--3--3--3-----|5--5--5--5--5--5--5--5--------|

(...Still don't know...)
|-------------------------------|-------------------------------|
|-------------------------------|-------------------------------|
|-----7--7--7--7--7--7--7--7----|-----7--7--7--7--7--7--7--7----|
|----------------------------X2-|-------------------------------|
|-------------------------------|-------------------------------|
|---0--0--0--0--0--0--0--0------|---7--7--7--7--7--7--7--7------|

(..I never will...)
|-----------------------------|------------------------------|
|-----------------------------|------------------------------|
|---2--2--2--2--2--2--2--2----|--6--6--6--6--6--6--6--6------|
|---------------------------X2|--------------------------X2--|
|-----------------------------|------------------------------|
|--3--3--3--3--3--3--3--3-----|5--5--5--5--5--5--5--5--------|

LAST CHORUS
*Guitar 1 turns on distortion*

(She whispers...)
|-----------------------------------------------------------|
|-----------------------------------------------------------|
|--7-7-7---7---7-7-7---7--7-7-7---7/9-9-9---9---------------|
|--7-7-7---7---7-7-7---7--7-7-7---7/9-9-9---9---------------|
|--5-5-5---5---5-5-5---5--5-5-5---5/7-7-7---7---------------|
|-----------------------------------------------------------|

(...unclear, she motions...)
|-----------------------------------------------------------|
|-----------------------------------------------------------|
|--4-4-4---4---4-4-4---4--4-4-4---4\2-2-2---2---------------|
|--4-4-4---4---4-4-4---4--4-4-4---4\2-2-2---2---------------|
|--2-2-2---2---2-2-2---2--2-2-2---2\0-0-0---0---------------|
|-----------------------------------------------------------|

(I trail her...)
|-----------------------------------------------------------|
|-----------------------------------------------------------|
|--7-7-7---7---7-7-7---7--7-7-7---7/9-9-9---9---------------|
|--7-7-7---7---7-7-7---7--7-7-7---7/9-9-9---9---------------|
|--5-5-5---5---5-5-5---5--5-5-5---5/7-7-7---7---------------|
|-----------------------------------------------------------|

(...not to cry, she shakes...)
|-----------------------------------------------------------|
|-----------------------------------------------------------|
|--4-4-4---4---4-4-4---4--4-4-4---4\2-2-2---2---------------|
|--4-4-4---4---4-4-4---4--4-4-4---4\2-2-2---2---------------|
|--2-2-2---2---2-2-2---2--2-2-2---2\0-0-0---0---------------|
|-----------------------------------------------------------|

(I can't compete...)
|-----------------------------------------------------------------------------------|
|-----------------------------------------------------------------------------------|
|-----------------------------------------------------------------------------------|
|--5-5-5--5--5-5-5--5---7-7-7--7--7-7-7--7--9-9-9--9--9-9-9--9--9-9-9--9--7-7-7--7--|
|--5-5-5--5--5-5-5--5---7-7-7--7--7-7-7--7--9-9-9--9--9-9-9--9--9-9-9--9--7-7-7--7--|
|--3-3-3--3--3-3-3--3---5-5-5--5--5-5-5--5--7-7-7--7--7-7-7--7--7-7-7--7--5-5-5--5--|

Repeat the above bar 3 times

(This is good-bye...)
|------------------------------------------|---------------|
|------------------------------------------|---------------|
|------------------------------------------|-7-7-7--7------|
|--5-5-5--5--5-5-5--5---7-7-7--7--7-7-7--7-|-7-7-7--7--X8--|
|--5-5-5--5--5-5-5--5---7-7-7--7--7-7-7--7-|-5-5-5--5------|
|--3-3-3--3--3-3-3--3---5-5-5--5--5-5-5--5-|---------------|



Guitar 2:
*Doesn't play in first verse*
*comes in when whole band comes in

|-----------------5~-----------------------|
|------------------------------------------|
|--7~------4~---------2~-------------------|
|--7~------4~------------------------------| X2
|--5~------2~------------------------------|
|------------------------------------------|


Verse 2
(no time...)
|-----------------------------------|
|-----------------------------------|
|--7~--/9~---4~----2~---------------|
|--7~--/9~---4~----2~---------------| X2
|--5~--/7~---2~----0~---------------|
|-----------------------------------|

(Cheap flights...)
|-----------------------------------|
|-----------------------------------|
|--7~--/9~---4~----2~---------------|
|--7~--/9~---4~----2~---------------| X2
|--5~--/7~---2~----0~---------------|
|-----------------------------------|


CHORUS 2

(I haunt...)
|-----------------------------------------------------------|
|-----------------------------------------------------------|
|----------------------------------------------------7~-----|
|--5~------7~------9~------7----5~------7~------9~---7~-----|
|--5~------7~------9~------7----5~------7~------9~---5~-----|
|--3~------5~------7~------5----3~------5~------7~----------|

*guitar 2 doesn't play anything for verse 3*

CHORUS 3

(As Autumn...)
|-----------------------------------------------------------|
|-----------------------------------------------------------|
|----------------------------------------------------7~-----|
|--5~------7~------9~------7----5~------7~------9~---7~-----|
|--5~------7~------9~------7----5~------7~------9~---5~-----|
|--3~------5~------7~------5----3~------5~------7~----------|


*guitar 2 doesn't play anything for the bridge*


LAST CHORUS

(She whispers...)
|-----------------------------------------------------------|
|-----------------------------------------------------------|
|--7-7-7---7---7-7-7---7--7-7-7---7/9-9-9---9---------------|
|--7-7-7---7---7-7-7---7--7-7-7---7/9-9-9---9---------------|
|--5-5-5---5---5-5-5---5--5-5-5---5/7-7-7---7---------------|
|-----------------------------------------------------------|

(...unclear, she motions...)
|-----------------------------------------------------------|
|-----------------------------------------------------------|
|--4-4-4---4---4-4-4---4--4-4-4---4\2-2-2---2---------------|
|--4-4-4---4---4-4-4---4--4-4-4---4\2-2-2---2---------------|
|--2-2-2---2---2-2-2---2--2-2-2---2\0-0-0---0---------------|
|-----------------------------------------------------------|

(I trail her...)
|-----------------------------------------------------------|
|-----------------------------------------------------------|
|--7-7-7---7---7-7-7---7--7-7-7---7/9-9-9---9---------------|
|--7-7-7---7---7-7-7---7--7-7-7---7/9-9-9---9---------------|
|--5-5-5---5---5-5-5---5--5-5-5---5/7-7-7---7---------------|
|-----------------------------------------------------------|

(...not to cry, she shakes...)
|-----------------------------------------------------------|
|-----------------------------------------------------------|
|--4-4-4---4---4-4-4---4--4-4-4---4\2-2-2---2---------------|
|--4-4-4---4---4-4-4---4--4-4-4---4\2-2-2---2---------------|
|--2-2-2---2---2-2-2---2--2-2-2---2\0-0-0---0---------------|
|-----------------------------------------------------------|

(I can't compete...)
|-----------------------------------------------------------------------------------|
|-----------------------------------------------------------------------------------|
|-----------------------------------------------------------------------------------|
|--5-5-5--5--5-5-5--5---7-7-7--7--7-7-7--7--9-9-9--9--9-9-9--9--9-9-9--9--7-7-7--7--|
|--5-5-5--5--5-5-5--5---7-7-7--7--7-7-7--7--9-9-9--9--9-9-9--9--9-9-9--9--7-7-7--7--|
|--3-3-3--3--3-3-3--3---5-5-5--5--5-5-5--5--7-7-7--7--7-7-7--7--7-7-7--7--5-5-5--5--|

Repeat the above bar 3 times
___________________________________________________________
*after Justin says "too tired to play pretend" he plays*
|-------------------|
|--------12~--------|
|-----/11~----------|
|-------------------|
|-------------------|
|-------------------|
___________________________________________________________

(this is good-bye...)
|------------------------------------------|---------------|
|------------------------------------------|---------------|
|------------------------------------------|-7-7-7--7------|
|--5-5-5--5--5-5-5--5---7-7-7--7--7-7-7--7-|-7-7-7--7--X8--|
|--5-5-5--5--5-5-5--5---7-7-7--7--7-7-7--7-|-5-5-5--5------|
|--3-3-3--3--3-3-3--3---5-5-5--5--5-5-5--5-|---------------|
comments
We did not receive enough feedback on this tab! Please rate:
print report bad tab
1 2 3 4 5
I want to post or [tab]
guest
You may want to rate the tab now too:
select rating
Please do not post tabs as comments. Select "correction" instead!