Oops, an error
Loading. Please wait.

Resolution Tab

3,582 views 1 this week
no commentswrite comment
1 2 3 4 5
accurate
x 2
Autoscroll
+/-
esc
set tempo
stop
Contributor
Difficulty
intermediate
Hey! There's an official Ultimate Guitar app which is ideal
for learning songs when you're away from computer. Get the app
WARNING: You are trying to view
                                    content from Ultimate-Guitar.com
                                    in an unauthorized application,
                                    which is prohibited.

                                    Please use an official Ultimate
                                    Guitar Tabs application for iPhone,
                                    iPad or Android to access legitimate
                                    chords, guitar, bass, and drum tabs
                                    from Ultimate-Guitar.com database.

                                    Type "ultimate guitar tabs" in Apple
                                    App Store's or Android Market's
                                    search to find the application.
Artist: Motion City Soundtrack
Song: Resolution
CD: Commit This To Memory
Tuning: Standard
Low to High
(EADGBe)
=======================================================================
this is one of my favorite MCS songs
so i decided to tab it
=======================================================================
GUITAR 1

verse
|-----------------------------------------------------------------|
|-----4-------4-------4-------4-------4-------4-------4-------4---|
|-----4-------4-------4-------4-------4-------4-------4-------4---|
|-----4-------4-------4-------4---2-2---2-2-2---2-2-2---2-2-2---2-|
|-2-2---2-2-2---2-2-2---2-2-2---2---------------------------------|
|-----------------------------------------------------------------|

|-----------------------------------------------------------------|
|-----4-------4-------4-------4-------4-------4-------4-------4---|
|-----4-------4-------4-------4-------4-------4-------4-------4---|
|-----4-------4-------4-------4---2-2---2-2-2---2-2-2---2-2-2---2-|
|-2-2---2-2-2---2-2-2---2-2-2---2---------------------------------|
|-----------------------------------------------------------------|

|---------------------2-------2-----|
|-----4-------4-------4-------4--0~-|
|-----4-------4-------4-------4--1~-|
|-----4-------4-------4-------4--2~-|
|--------------------------------2~-|
|-4-4---4-4-4---4-2-2---2-2-2----0~-|

chorus
|-----------------------------------|
|-----------------------------------|
|-4-4-4-4---------9-9-9-9-8-9-11-11-|
|-4-4-4-4-4-4-4-4-9-9-9-9-8-9-11-11-|
|-2-2-2-2-4-4-4-4-7-7-7-7-6-7--9--9-|
|---------2-2-2-2-------------------|

|----------------------------------|
|----------------------------------|
|-4-4-4-4---------6-6-6-6----------|
|-4-4-4-4-4-4-4-4-6-6-6-6-4-4-4-4--|
|-2-2-2-2-4-4-4-4-4-4-4-4-4-4-4-4--|
|---------2-2-2-2---------2-2-2-2--|

|-----------------------------------|
|-----------------------------------|
|-4-4-4-4---------9-9-9-9-8-9-11-11-|
|-4-4-4-4-4-4-4-4-9-9-9-9-8-9-11-11-|
|-2-2-2-2-4-4-4-4-7-7-7-7-6-7--9--9-|
|---------2-2-2-2-------------------|

|------------------------------------|
|------------------------------------|
|-4-4-4-4---------6-6-6-6------------|
|-4-4-4-4-4-4-4-4-6-6-6-6-4-4-4-4-2~-|
|-2-2-2-2-4-4-4-4-4-4-4-4-4-4-4-4-2~-|
|---------2-2-2-2---------2-2-2-2-0~-|

verse 2
|-------------------------------------------------|
|-------------------------------------------------|
|-------1-----------1-----------------------------|
|-1-1-1-------1-1-1---------------1------------1--|
|---------2~----------2~--1---------2--1----------|
|---------------------------4-4-4--------4-4-4---2|

|-------------------------------------------------|
|-------------------------------------------------|
|-------1-----------1-----------------------------|
|-1-1-1-------1-1-1---------------1------------1--|
|---------2~----------2~--1---------2--1----------|
|---------------------------4-4-4--------4-4-4---2|

|-------------------------------------------------|
|-------------------------------------------------|
|-------1-----------1-----------------------------|
|-1-1-1-------1-1-1---------------1------------1--|
|---------2~----------2~--1---------2--1----------|
|---------------------------4-4-4--------4-4-4---2|

chorus
|-----------------------------------|
|-----------------------------------|
|-4-4-4-4---------9-9-9-9-8-9-11-11-|
|-4-4-4-4-4-4-4-4-9-9-9-9-8-9-11-11-|
|-2-2-2-2-4-4-4-4-7-7-7-7-6-7--9--9-|
|---------2-2-2-2-------------------|

|----------------------------------|
|----------------------------------|
|-4-4-4-4---------6-6-6-6----------|
|-4-4-4-4-4-4-4-4-6-6-6-6-4-4-4-4--|
|-2-2-2-2-4-4-4-4-4-4-4-4-4-4-4-4--|
|---------2-2-2-2---------2-2-2-2--|

|-----------------------------------|
|-----------------------------------|
|-4-4-4-4---------9-9-9-9-8-9-11-11-|
|-4-4-4-4-4-4-4-4-9-9-9-9-8-9-11-11-|
|-2-2-2-2-4-4-4-4-7-7-7-7-6-7--9--9-|
|---------2-2-2-2-------------------|

|---------------------------------------------------------|
|---------------------------------------------------------|
|-4-4-4-4---------6-6-6-6---------------------------------|
|-4-4-4-4-4-4-4-4-6-6-6-6-4-4-4-4-2-2-2-2-2-2-2-2-2-2-2-2-|
|-2-2-2-2-4-4-4-4-4-4-4-4-4-4-4-4-2-2-2-2-2-2-2-2-2-2-2-2-|
|---------2-2-2-2---------2-2-2-2-0-0-0-0-0-0-0-0-0-0-0-0-|

solo
|-------------------------2p4-|
|---------------------2-0-----|
|---3-4----3-4----3-4---------|
|-1------1------1-------------|
|-----------------------------|
|-----------------------------|

|-------------------------2p4-|
|---------------------2-0-----|
|---3-4----3-4----3-4---------|
|-1------1------1-------------|
|-----------------------------|
|-----------------------------|

|-/11-11-11-11-11-11-11-11-7-11-7-11-7-|
|--------------------------------------|
|--------------------------------------|
|--------------------------------------|
|--------------------------------------|
|--------------------------------------|

chorus
|-----------------------------------|
|-----------------------------------|
|-4-4-4-4---------9-9-9-9-8-9-11-11-|
|-4-4-4-4-4-4-4-4-9-9-9-9-8-9-11-11-|
|-2-2-2-2-4-4-4-4-7-7-7-7-6-7--9--9-|
|---------2-2-2-2-------------------|

|----------------------------------|
|----------------------------------|
|-4-4-4-4---------6-6-6-6----------|
|-4-4-4-4-4-4-4-4-6-6-6-6-4-4-4-4--|
|-2-2-2-2-4-4-4-4-4-4-4-4-4-4-4-4--|
|---------2-2-2-2---------2-2-2-2--|

|-----------------------------------|
|-----------------------------------|
|-4-4-4-4---------9-9-9-9-8-9-11-11-|
|-4-4-4-4-4-4-4-4-9-9-9-9-8-9-11-11-|
|-2-2-2-2-4-4-4-4-7-7-7-7-6-7--9--9-|
|---------2-2-2-2-------------------|

|------------------------------------------|
|------------------------------------------|
|-4-4-4-4---------6-6-6-6------------------|
|-4-4-4-4-4-4-4-4-6-6-6-6-4-4-4-4-2-2-2-2--|
|-2-2-2-2-4-4-4-4-4-4-4-4-4-4-4-4-2-2-2-2--|
|---------2-2-2-2---------2-2-2-2-0-0-0-0--|

|-----------------------------------|
|-----------------------------------|
|-4-4-4-4---------9-9-9-9-8-9-11-11-|
|-4-4-4-4-4-4-4-4-9-9-9-9-8-9-11-11-|
|-2-2-2-2-4-4-4-4-7-7-7-7-6-7--9--9-|
|---------2-2-2-2-------------------|

|----------------------------------|
|----------------------------------|
|-4-4-4-4---------6-6-6-6----------|
|-4-4-4-4-4-4-4-4-6-6-6-6-4-4-4-4--|
|-2-2-2-2-4-4-4-4-4-4-4-4-4-4-4-4--|
|---------2-2-2-2---------2-2-2-2--|

|-----------------------------------|
|-----------------------------------|
|-4-4-4-4---------9-9-9-9-8-9-11-11-|
|-4-4-4-4-4-4-4-4-9-9-9-9-8-9-11-11-|
|-2-2-2-2-4-4-4-4-7-7-7-7-6-7--9--9-|
|---------2-2-2-2-------------------|

|-------------------------------------|
|-------------------------------------|
|-4-4-4-4---------6-6-6-6-------------|
|-4-4-4-4-4-4-4-4-6-6-6-6-4-4-4-4-2~--|
|-2-2-2-2-4-4-4-4-4-4-4-4-4-4-4-4-2~--|
|---------2-2-2-2---------2-2-2-2-0~--|

outro
|-----------------------------------------------------------------|
|-----4-------4-------4-------4-------4-------4-------4-------4---|
|-----4-------4-------4-------4-------4-------4-------4-------4---|
|-----4-------4-------4-------4---2-2---2-2-2---2-2-2---2-2-2---2-|
|-2-2---2-2-2---2-2-2---2-2-2---2---------------------------------|
|-----------------------------------------------------------------|

|-----------------------------------------------------------------|
|-----4-------4-------4-------4-------4-------4-------4-------4---|
|-----4-------4-------4-------4-------4-------4-------4-------4---|
|-----4-------4-------4-------4---2-2---2-2-2---2-2-2---2-2-2---2-|
|-2-2---2-2-2---2-2-2---2-2-2---2---------------------------------|
|-----------------------------------------------------------------|

|----2~----|
|-4~-4~-0~-|
|-4~-4~-1~-|
|-4~-4~-2~-|
|-x~-x~-2~-|
|-4~-2~-0~-|
=========================================================================

GUITAR 2

intro-doesn't play

chorus
|-----------------------------------|
|-----------------------------------|
|-4-4-4-4---------9-9-9-9-8-9-11-11-|
|-4-4-4-4-4-4-4-4-9-9-9-9-8-9-11-11-|
|-2-2-2-2-4-4-4-4-7-7-7-7-6-7--9--9-|
|---------2-2-2-2-------------------|

|----------------------------------|
|----------------------------------|
|-4-4-4-4---------6-6-6-6----------|
|-4-4-4-4-4-4-4-4-6-6-6-6-4-4-4-4--|
|-2-2-2-2-4-4-4-4-4-4-4-4-4-4-4-4--|
|---------2-2-2-2---------2-2-2-2--|

|-----------------------------------|
|-----------------------------------|
|-4-4-4-4---------9-9-9-9-8-9-11-11-|
|-4-4-4-4-4-4-4-4-9-9-9-9-8-9-11-11-|
|-2-2-2-2-4-4-4-4-7-7-7-7-6-7--9--9-|
|---------2-2-2-2-------------------|

|------------------------------------|
|------------------------------------|
|-4-4-4-4---------6-6-6-6------------|
|-4-4-4-4-4-4-4-4-6-6-6-6-4-4-4-4-2~-|
|-2-2-2-2-4-4-4-4-4-4-4-4-4-4-4-4-2~-|
|---------2-2-2-2---------2-2-2-2-0~-|

verse 2
|-----------------------------------------------------------------|
|-----4-------4-------4-------4-------4-------4-------4-------4---|
|-----4-------4-------4-------4-------4-------4-------4-------4---|
|-----4-------4-------4-------4---2-2---2-2-2---2-2-2---2-2-2---2-|
|-2-2---2-2-2---2-2-2---2-2-2---2---------------------------------|
|-----------------------------------------------------------------|

|-----------------------------------------------------------------|
|-----4-------4-------4-------4-------4-------4-------4-------4---|
|-----4-------4-------4-------4-------4-------4-------4-------4---|
|-----4-------4-------4-------4---2-2---2-2-2---2-2-2---2-2-2---2-|
|-2-2---2-2-2---2-2-2---2-2-2---2---------------------------------|
|-----------------------------------------------------------------|

|---------------------2-------2---|
|-----4-------4-------4-------4---|
|-----4-------4-------4-------4---|
|-----4-------4-------4-------4---|
|---------------------------------|
|-4-4---4-4-4---4-2-2---2-2-2-----|

|-----------------------------------------------------------------|
|-----4-------4-------4-------4-------4-------4-------4-------4---|
|-----4-------4-------4-------4-------4-------4-------4-------4---|
|-----4-------4-------4-------4---2-2---2-2-2---2-2-2---2-2-2---2-|
|-2-2---2-2-2---2-2-2---2-2-2---2---------------------------------|
|-----------------------------------------------------------------|

|-----------------------------------------------------------------|
|-----4-------4-------4-------4-------4-------4-------4-------4---|
|-----4-------4-------4-------4-------4-------4-------4-------4---|
|-----4-------4-------4-------4---2-2---2-2-2---2-2-2---2-2-2---2-|
|-2-2---2-2-2---2-2-2---2-2-2---2---------------------------------|
|-----------------------------------------------------------------|

|---------------------2-------2---|
|-----4-------4-------4-------4---|
|-----4-------4-------4-------4---|
|-----4-------4-------4-------4---|
|---------------------------------|
|-4-4---4-4-4---4-2-2---2-2-2-----|

|-----------------------------------------------------------------|
|-----4-------4-------4-------4-------4-------4-------4-------4---|
|-----4-------4-------4-------4-------4-------4-------4-------4---|
|-----4-------4-------4-------4---2-2---2-2-2---2-2-2---2-2-2---2-|
|-2-2---2-2-2---2-2-2---2-2-2---2---------------------------------|
|-----------------------------------------------------------------|

|-----------------------------------------------------------------|
|-----4-------4-------4-------4-------4-------4-------4-------4---|
|-----4-------4-------4-------4-------4-------4-------4-------4---|
|-----4-------4-------4-------4---2-2---2-2-2---2-2-2---2-2-2---2-|
|-2-2---2-2-2---2-2-2---2-2-2---2---------------------------------|
|-----------------------------------------------------------------|

|----2~-------------------------------|
|-4~-4~-------------------------------|
|-4~-4~-------------------------------|
|-4~-4~-2-2-2-2-2-2-2-2-2-2-2-2-x-x-x-|
|-x~-x~-2-2-2-2-2-2-2-2-2-2-2-2-x-x-x-|
|-4~-2~-0-0-0-0-0-0-0-0-0-0-0-0-x-x-x-|

chorus
|-----------------------------------|
|-----------------------------------|
|-4-4-4-4---------9-9-9-9-8-9-11-11-|
|-4-4-4-4-4-4-4-4-9-9-9-9-8-9-11-11-|
|-2-2-2-2-4-4-4-4-7-7-7-7-6-7--9--9-|
|---------2-2-2-2-------------------|

|----------------------------------|
|----------------------------------|
|-4-4-4-4---------6-6-6-6----------|
|-4-4-4-4-4-4-4-4-6-6-6-6-4-4-4-4--|
|-2-2-2-2-4-4-4-4-4-4-4-4-4-4-4-4--|
|---------2-2-2-2---------2-2-2-2--|

|-----------------------------------|
|-----------------------------------|
|-4-4-4-4---------9-9-9-9-8-9-11-11-|
|-4-4-4-4-4-4-4-4-9-9-9-9-8-9-11-11-|
|-2-2-2-2-4-4-4-4-7-7-7-7-6-7--9--9-|
|---------2-2-2-2-------------------|

|---------------------------------------------------------|
|---------------------------------------------------------|
|-4-4-4-4---------6-6-6-6---------------------------------|
|-4-4-4-4-4-4-4-4-6-6-6-6-4-4-4-4-2-2-2-2-2-2-2-2-2-2-2-2-|
|-2-2-2-2-4-4-4-4-4-4-4-4-4-4-4-4-2-2-2-2-2-2-2-2-2-2-2-2-|
|---------2-2-2-2---------2-2-2-2-0-0-0-0-0-0-0-0-0-0-0-0-|

solo
|-------------------------------------------|
|-------------------------------------------|
|-4~--9~--4~--9~--4-4-4-4-4-4-4-4-----------|
|-4~--9~--4~--9~--4-4-4-4-4-4-4-4-4-4-4-4-4-|
|-2~--7~--2~--7~--2-2-2-2-2-2-2-2-4-4-4-4-4-|
|---------------------------------2-2-2-2-2-|

chorus
|-----------------------------------|
|-----------------------------------|
|-4-4-4-4---------9-9-9-9-8-9-11-11-|
|-4-4-4-4-4-4-4-4-9-9-9-9-8-9-11-11-|
|-2-2-2-2-4-4-4-4-7-7-7-7-6-7--9--9-|
|---------2-2-2-2-------------------|

|----------------------------------|
|----------------------------------|
|-4-4-4-4---------6-6-6-6----------|
|-4-4-4-4-4-4-4-4-6-6-6-6-4-4-4-4--|
|-2-2-2-2-4-4-4-4-4-4-4-4-4-4-4-4--|
|---------2-2-2-2---------2-2-2-2--|

|-----------------------------------|
|-----------------------------------|
|-4-4-4-4---------9-9-9-9-8-9-11-11-|
|-4-4-4-4-4-4-4-4-9-9-9-9-8-9-11-11-|
|-2-2-2-2-4-4-4-4-7-7-7-7-6-7--9--9-|
|---------2-2-2-2-------------------|

|------------------------------------------|
|------------------------------------------|
|-4-4-4-4---------6-6-6-6------------------|
|-4-4-4-4-4-4-4-4-6-6-6-6-4-4-4-4-2-2-2-2--|
|-2-2-2-2-4-4-4-4-4-4-4-4-4-4-4-4-2-2-2-2--|
|---------2-2-2-2---------2-2-2-2-0-0-0-0--|

|-----------------------------------|
|-----------------------------------|
|-4-4-4-4---------9-9-9-9-8-9-11-11-|
|-4-4-4-4-4-4-4-4-9-9-9-9-8-9-11-11-|
|-2-2-2-2-4-4-4-4-7-7-7-7-6-7--9--9-|
|---------2-2-2-2-------------------|

|----------------------------------|
|----------------------------------|
|-4-4-4-4---------6-6-6-6----------|
|-4-4-4-4-4-4-4-4-6-6-6-6-4-4-4-4--|
|-2-2-2-2-4-4-4-4-4-4-4-4-4-4-4-4--|
|---------2-2-2-2---------2-2-2-2--|

|-----------------------------------|
|-----------------------------------|
|-4-4-4-4---------9-9-9-9-8-9-11-11-|
|-4-4-4-4-4-4-4-4-9-9-9-9-8-9-11-11-|
|-2-2-2-2-4-4-4-4-7-7-7-7-6-7--9--9-|
|---------2-2-2-2-------------------|

|-------------------------------------|
|-------------------------------------|
|-4-4-4-4---------6-6-6-6-------------|
|-4-4-4-4-4-4-4-4-6-6-6-6-4-4-4-4-2~--|
|-2-2-2-2-4-4-4-4-4-4-4-4-4-4-4-4-2~--|
|---------2-2-2-2---------2-2-2-2-0~--|

outro-doesn't play
=========================================================================
comments
We did not receive enough feedback on this tab! Please rate:
print report bad tab
1 2 3 4 5
I want to post or [tab]
guest
You may want to rate the tab now too:
select rating
Please do not post tabs as comments. Select "correction" instead!