Oops, an error
Loading. Please wait.

Black Widow Tab

ver1
ver1

Whole song

More versions @911Tabs.com
3,340 views 18 this week
1 commentread comment
1 2 3 4 5
not so good
x 1
add to favorites launch autoscroll
font size
0
reset
Autoscroll
+/-
esc
set tempo
stop
WARNING: You are trying to view
                                    content from Ultimate-Guitar.com
                                    in an unauthorized application,
                                    which is prohibited.

                                    Please use an official Ultimate
                                    Guitar Tabs application for iPhone,
                                    iPad or Android to access legitimate
                                    chords, guitar, bass, and drum tabs
                                    from Ultimate-Guitar.com database.

                                    Type "ultimate guitar tabs" in Apple
                                    App Store's or Android Market's
                                    search to find the application.
black widow
motley crue

PM- palm mute
b- bend
<- slide down
/- slide up

D tuning- DAFCGD

intro- PM
d-----------------------------------------------------------------------------------------|
a-----------------------------------------------------------------------------------------|
f----------------------------------9--------------------------------------------9---------|
c----10-9-10----10-9-10----10-9-10---10-9-10------10-9-10----10-9-10----10-9-10---10-9-10-|
g--7----------7----------7----------------------6----------6----------6-------------------|
d-----------------------------------------------------------------------------------------|

d-----------------------------------------------------------------------------------------|
a-----------------------------------------------------------------------------------------|
f----------------------------------9--------------------------------------------9---------|
c----10-9-10----10-9-10----10-9-10---10-9-10------10-9-10----10-9-10----10-9-10---10-9-10-|
g--7----------7----------7----------------------6----------6----------6-------------------|
d-----------------------------------------------------------------------------------------|

verse- PM
d-----------------------------------------------------------------------------------------|
a-----------------------------------------------------------------------------------------|
f----------------------------------9--------------------------------------------9---------|
c----10-9-10----10-9-10----10-9-10---10-9-10------10-9-10----10-9-10----10-9-10---10-9-10-|
g--7----------7----------7----------------------6----------6----------6-------------------|
d-----------------------------------------------------------------------------------------|

d-----------------------------------------------------------------------------------------|
a-----------------------------------------------------------------------------------------|
f----------------------------------9--------------------------------------------9---------|
c----10-9-10----10-9-10----10-9-10---10-9-10------10-9-10----10-9-10----10-9-10---10-9-10-|
g--5----------5----------5----------------------4----------4----------4-------------------|
d-----------------------------------------------------------------------------------------|

d-----------------------------------------------------------------------------------------|
a-----------------------------------------------------------------------------------------|
f----------------------------------9--------------------------------------------9---------|
c----10-9-10----10-9-10----10-9-10---10-9-10------10-9-10----10-9-10----10-9-10---10-9-10-|
g--7----------7----------7----------------------6----------6----------6-------------------|
d-----------------------------------------------------------------------------------------|

d-----------------------------------------------------------------------------------------|
a-----------------------------------------------------------------------------------------|
f----------------------------------9--------------------------------------------9---------|
c----10-9-10----10-9-10----10-9-10---10-9-10------10-9-10----10-9-10----10-9-10---10-9-10-|
g--5----------5----------5----------------------4----------4----------4-------------------|
d-----------------------------------------------------------------------------------------|

pre chorus
   PM--|               PM--|
d----------------------------------------|
a----------------------------------------|
f--99999-9b-9b-9b------99999-9b-9b-9b----|
c--99999-9b-9b-9b------99999-9b-9b-9b----|
g--77777----------6b---77777----------6b-|
d----------------------------------------|

chorus- theres a little fill after -the black widow- parts
d------------------------------------------------|
a------------------------------------------------|
f------------------------------------------------|
c--7-7-5-7-7--7-7-5-7-7--7-7-5-5-7---------------|
g--7-7-5-7-7--7-7-5-7-7--7-7-5-5-7------0-3------|
d--5-5-3-5-5--5-5-3-5-5--5-5-3-3-5--0-3------0-3-|

d----------------------------------------------------------------------------------------------------|
a----------------------------------------------------------------------------------------------------|
f----------------------------------------------------------------------------------------------------|
c--7-7-5-7---------------14-14-15-14----------------7-7-5-7----------------14-14-15-14---------------|
g--7-7-5-7------0-3------14-14-15-14------0-3-------7-7-5-7------0-3-------14-14-15-14------0-3------|
d--5-5-3-5--0-3-----0-3--12-12-13-12--0-3------0-3--5-5-3-5--0-3------0-3--12-12-13-12--0-3------0-3-|

      PM         PM              PM                 PM
d--------------------------------------------------------|
a--------------------------------------------------------|
f--------------------------------------------------------|
c--7-77777-7<-6-66666-6/-11--11-11-11-11-11--11<-5-55555-|
g--5-55555-5<-4-44444-4/-9---9--9--9--9--9----9<-3-33333-|
d--------------------------------------------------------|

   PM--|               PM--|
d----------------------------------------|
a----------------------------------------|
f--99999-9b-9b-9b------99999-9b-9b-9b----|
c--99999-9b-9b-9b------99999-9b-9b-9b----|
g--77777----------6b---77777----------6b-|
d----------------------------------------|


solo #1- dont have it yet, its almost the exact same as the solo from -Danger-
intro played underneath


verse- PM
d-----------------------------------------------------------------------------------------|
a-----------------------------------------------------------------------------------------|
f----------------------------------9--------------------------------------------9---------|
c----10-9-10----10-9-10----10-9-10---10-9-10------10-9-10----10-9-10----10-9-10---10-9-10-|
g--7----------7----------7----------------------6----------6----------6-------------------|
d-----------------------------------------------------------------------------------------|

d-----------------------------------------------------------------------------------------|
a-----------------------------------------------------------------------------------------|
f----------------------------------9--------------------------------------------9---------|
c----10-9-10----10-9-10----10-9-10---10-9-10------10-9-10----10-9-10----10-9-10---10-9-10-|
g--5----------5----------5----------------------4----------4----------4-------------------|
d-----------------------------------------------------------------------------------------|

d-----------------------------------------------------------------------------------------|
a-----------------------------------------------------------------------------------------|
f----------------------------------9--------------------------------------------9---------|
c----10-9-10----10-9-10----10-9-10---10-9-10------10-9-10----10-9-10----10-9-10---10-9-10-|
g--7----------7----------7----------------------6----------6----------6-------------------|
d-----------------------------------------------------------------------------------------|

d-----------------------------------------------------------------------------------------|
a-----------------------------------------------------------------------------------------|
f----------------------------------9--------------------------------------------9---------|
c----10-9-10----10-9-10----10-9-10---10-9-10------10-9-10----10-9-10----10-9-10---10-9-10-|
g--5----------5----------5----------------------4----------4----------4-------------------|
d-----------------------------------------------------------------------------------------|

pre chorus
   PM--|               PM--|
d----------------------------------------|
a----------------------------------------|
f--99999-9b-9b-9b------99999-9b-9b-9b----|
c--99999-9b-9b-9b------99999-9b-9b-9b----|
g--77777----------6b---77777----------6b-|
d----------------------------------------|

chorus- theres a little fill after -the black widow- parts
d------------------------------------------------|
a------------------------------------------------|
f------------------------------------------------|
c--7-7-5-7-7--7-7-5-7-7--7-7-5-5-7---------------|
g--7-7-5-7-7--7-7-5-7-7--7-7-5-5-7------0-3------|
d--5-5-3-5-5--5-5-3-5-5--5-5-3-3-5--0-3------0-3-|

d----------------------------------------------------------------------------------------------------|
a----------------------------------------------------------------------------------------------------|
f----------------------------------------------------------------------------------------------------|
c--7-7-5-7---------------14-14-15-14----------------7-7-5-7----------------14-14-15-14---------------|
g--7-7-5-7------0-3------14-14-15-14------0-3-------7-7-5-7------0-3-------14-14-15-14------0-3------|
d--5-5-3-5--0-3-----0-3--12-12-13-12--0-3------0-3--5-5-3-5--0-3------0-3--12-12-13-12--0-3------0-3-|

      PM         PM              PM                 PM
d--------------------------------------------------------|
a--------------------------------------------------------|
f--------------------------------------------------------|
c--7-77777-7<-6-66666-6/-11--11-11-11-11-11--11<-5-55555-|
g--5-55555-5<-4-44444-4/-9---9--9--9--9--9----9<-3-33333-|
d--------------------------------------------------------|

   PM--|               PM--|
d----------------------------------------|
a----------------------------------------|
f--99999-9b-9b-9b------99999-9b-9b-9b----|
c--99999-9b-9b-9b------99999-9b-9b-9b----|
g--77777----------6b---77777----------6b-|
d----------------------------------------|


solo #2
d---------------------------------------------------------|
a---------------------------------------------------------|
f---------------------------------------------------------|
c---------------------------------------------------------|
g--0-0-0-2-2-2-3-3-3-5-5-3-2------------------------------|
d-----------------------------1-1-1-3-3-3-5-5-5-7-7-7-5-3-|

                                      PM----------------------------------------|
d-------------------------------------------------------------------------------|
a-------------------------------------------------------------------------------|
f-------------------------------------------------------------------------------|
c--7-7-7-9-9-9-10-10-10-12-12-10------------------------------------------------|
g--------------------------------12---------------------------------------------|
d------------------------------------12-12-12-13-13-13-15-15-15-17-17-17-19-17--|


chorus
d---------------------------------------------------------------------------------------------|
a---------------------------------------------------------------------------------------------|
f-----------------------9-9-10-9---------------------------------------9-9-10-9---------------|
c--7-7-5-7--------------9-9-10-9----------------7-7-5-7----------------9-9-10-9---------------|
g--7-7-5-7------0-3-----7-7-8--7-------0-3------7-7-5-7------0-3-------7-7-8--7------0-3------|
d--5-5-3-5--0-3-----0-3-----------0-3------0-3--5-5-3-5--0-3------0-3------------0-3------0-3-|

d---------------------------------------------------------------------------------------------|
a---------------------------------------------------------------------------------------------|
f-----------------------9-9-10-9---------------------------------------9-9-10-9---------------|
c--7-7-5-7--------------9-9-10-9----------------7-7-5-7----------------9-9-10-9---------------|
g--7-7-5-7------0-3-----7-7-8--7-------0-3------7-7-5-7------0-3-------7-7-8--7------0-3------|
d--5-5-3-5--0-3-----0-3-----------0-3------0-3--5-5-3-5--0-3------0-3------------0-3------0-3-|


d----------------------------------------------------------------------------------------------------|
a----------------------------------------------------------------------------------------------------|
f----------------------------------------------------------------------------------------------------|
c--7-7-5-7---------------14-14-15-14----------------7-7-5-7----------------14-14-15-14---------------|
g--7-7-5-7------0-3------14-14-15-14------0-3-------7-7-5-7------0-3-------14-14-15-14------0-3------|
d--5-5-3-5--0-3-----0-3--12-12-13-12--0-3------0-3--5-5-3-5--0-3------0-3--12-12-13-12--0-3------0-3-|

      PM         PM              PM                 PM
d--------------------------------------------------------|
a--------------------------------------------------------|
f--------------------------------------------------------|
c--7-77777-7<-6-66666-6/-11--11-11-11-11-11--11<-5-55555-|
g--5-55555-5<-4-44444-4/-9---9--9--9--9--9----9<-3-33333-|
d--------------------------------------------------------|

   PM--|               PM--|
d----------------------------------------|
a----------------------------------------|
f--99999-9b-9b-9b------99999-9b-9b-9b----|
c--99999-9b-9b-9b------99999-9b-9b-9b----|
g--77777----------6b---77777----------6b-|
d----------------------------------------|

outro- x4 and fade, PM
d-----------------------------------------------------------------------------------------|
a-----------------------------------------------------------------------------------------|
f----------------------------------9--------------------------------------------9---------|
c----10-9-10----10-9-10----10-9-10---10-9-10------10-9-10----10-9-10----10-9-10---10-9-10-|
g--7----------7----------7----------------------6----------6----------6-------------------|
d-----------------------------------------------------------------------------------------|

d-----------------------------------------------------------------------------------------|
a-----------------------------------------------------------------------------------------|
f----------------------------------9--------------------------------------------9---------|
c----10-9-10----10-9-10----10-9-10---10-9-10------10-9-10----10-9-10----10-9-10---10-9-10-|
g--7----------7----------7----------------------6----------6----------6-------------------|
d-----------------------------------------------------------------------------------------|

questions email me: valkeyrie3@hotmail.com
comments
We did not receive enough feedback on this tab! Please rate:
print report bad tab
1 2 3 4 5
1 comment total.
0 reply
flyin_high wrote on March 13 2006, 08:36 am

not completly accurate

I want to post or [tab]
guest
You may want to rate the tab now too:
select rating
Please do not post tabs as comments. Select "correction" instead!