Oops, an error
Loading. Please wait.

Come On And Dance Tab

ver2
ver2

Solo

Whole song

Interactive

More versions @911Tabs.com
258 views 3 this week
no commentswrite comment
1 2 3 4 5
please rate
add to favorites launch autoscroll
font size
0
reset
Autoscroll
+/-
esc
set tempo
stop
Contributor
Difficulty
Tuning
intermediate
D G C F A D
WARNING: You are trying to view
                                    content from Ultimate-Guitar.com
                                    in an unauthorized application,
                                    which is prohibited.

                                    Please use an official Ultimate
                                    Guitar Tabs application for iPhone,
                                    iPad or Android to access legitimate
                                    chords, guitar, bass, and drum tabs
                                    from Ultimate-Guitar.com database.

                                    Type "ultimate guitar tabs" in Apple
                                    App Store's or Android Market's
                                    search to find the application.
-----------------------------------------------------------------------------
                                  
              Come On and Dance - Motley Crue (GUITAR)
            
-----------------------------------------------------------------------------
Tabbed by: Scotto10

Tuning: tune all strings down one step

=============================================================================


Guitar 1



     PM PM             PM                                
     E  E  E  E  E  E  E  E     E  E  E  E  E  E  E  E   
D||--------------------------|--------------------------|
A||--------------------------|--------------------------|
F||--------------------------|--------------------------|
C||--------7--x--6--------7--|--x--6-----7-----4--4--4--|
G||--------5--x--4--x-----5--|--x--4--x--5-----2--2--2--|
D||--0--0--------------0-----|--------------------------|


  PM PM             PM                                  PM               PM     
  E  E  E  E  E  E  E  E     E  E  E  E  E  E  E  E     Q    E  E  E  E  E  E   
--------------------------|--------------------------|-------------------------|
--------------------------|--------------------------|-------------------------|
--------------------------|--------------------------|-------------------------|
--------7--x--6--------7--|--x--6-----7--------------|-------7--x--6--------7--|
--------5--x--4--x-----5--|--x--4--x--5--------------|-------5--x--4--x-----5--|
--0--0--------------0-----|-----------------3--2--1--|--0----------------0-----|


                             PM PM             PM                         
  E  E  E  E  E  E  E  E     E  E  E  E  E  E  E  E     W                 
--------------------------|--------------------------|-------------------|
--------------------------|--------------------------|-------------------|
--------------------------|--------------------------|-------------------|
--x--6-----7-----4--4--4--|--------7--x--6--------7--|-------------------|
--x--4--x--5-----2--2--2--|--------5--x--4--x-----5--|-------------------|
--------------------------|--0--0--------------0-----|-------------------|


                                                                   NH        
  Q    Q    E  E  E  E     Q    Q    E  E  E  E     Q    Q    E    E  E  E   
------------------------|------------------------|--------------------------|
---------------3--------|---------------3--------|-----------------------3--|
---------------2--------|---------------2--------|-----------------x-----2--|
---------------0--------|---------------0--------|-----------------x--x--0--|
--2----2-------------2--|--2----2-------------2--|--2----2-------<>7--x-----|
--0----0-------------0--|--0----0-------------0--|--0----0------------------|


  E  E  Q    Q    E  E     Q    Q    E  E  E  E     Q    Q    E  E  E  E   
------------------------|------------------------|------------------------|
--L---------------------|---------------3--------|---------------3--------|
--L-----2---------------|---------------2--------|---------------2--------|
--L-----2---------------|---------------0--------|---------------0--------|
--------0------------2--|--2----2-------------2--|--2----2-------------2--|
------------------x--0--|--0----0-------------0--|--0----0-------------0--|


  Q    Q    E  E  E  E     E  E  Q    Q    E  E     E  Q    E  Q    Q     
------------------------|------------------------|-----------------------|
---------------------3--|--L---------------------|--3---------------3----|
---------------------2--|--L-----2---------------|--2-------2-------2----|
---------------x--x--0--|--L-----2---------------|--0-------2--x----0----|
--2----2-------x--x-----|--------0---------------|----------0--x---------|
--0----0----------------|------------------x--x--|-----------------------|


                                         PM               PM     
  W                   Q.     E  E  E     Q    E  E  E  E  E  E   
-------------------|------------------|-------------------------|
--L----------------|------------------|-------------------------|
--L----------------|------------------|-------------------------|
--L----------------|--L---------------|-------7--x--6--------7--|
-------------------|--L---------------|-------5--x--4--x-----5--|
-------------------|---------3--2--1--|--0----------------0-----|


                             PM PM             PM     
  E  E  E  E  E  E  E  E     E  E  E  E  E  E  E  E   
--------------------------|--------------------------|
--------------------------|--------------------------|
--------------------------|--------------------------|
--x--6-----7-----4--4--4--|--------7--x--6--------7--|
--x--4--x--5-----2--2--2--|--------5--x--4--x-----5--|
--------------------------|--0--0--------------0-----|


                             PM PM             PM     
  E  E  E  E  E  E  E  E     E  E  E  E  E  E  E  E   
--------------------------|--------------------------|
--------------------------|--------------------------|
--------------------------|--------------------------|
--x--6-----7--------------|--------7--x--6--------7--|
--x--4--x--5--------------|--------5--x--4--x-----5--|
-----------------3--2--1--|--0--0--------------0-----|


                             PM PM             PM     
  E  E  E  E  E  E  E  E     E  E  E  E  E  E  E  E   
--------------------------|--------------------------|
--------------------------|--------------------------|
--------------------------|--------------------------|
--x--6-----7-----4--4--4--|--------7--x--6--------7--|
--x--4--x--5-----2--2--2--|--------5--x--4--x-----5--|
--------------------------|--0--0--------------0-----|


  E  E  E  E  E  E  E  E     Q    Q    E  E  E  E     Q    Q    E  E  E  E   
--------------------------|------------------------|------------------------|
--------------------------|---------------3--------|---------------3--------|
--------------------------|---------------2--------|---------------2--------|
--x--6-----7--------------|---------------0--------|---------------0--------|
--x--4--x--5--------------|--2----2-------------2--|--2----2-------------2--|
-----------------3--2--1--|--0----0-------------0--|--0----0-------------0--|


  Q    Q    E  E  E  E     E  E  Q    Q    E  E     Q    Q    E  E  E  E   
------------------------|------------------------|------------------------|
---------------------3--|--L---------------------|---------------3--------|
---------------------2--|--L---------------------|---------------2--------|
---------------x--x--0--|--L-----2---------------|---------------0--------|
--2----2-------x--x-----|--L-----0------------2--|--2----2-------------2--|
--0----0----------------|------------------x--0--|--0----0-------------0--|


  Q    Q    E  E  E  E     Q    Q    E  E  E  E     E  E  Q    Q    E  E   
------------------------|------------------------|------------------------|
---------------3--------|---------------------3--|--L---------------------|
---------------2--------|---------------------2--|--L---------------------|
---------------0--------|---------------x--x--0--|--L-----2---------------|
--2----2-------------2--|--2----2-------x--x-----|--L-----0---------------|
--0----0-------------0--|--0----0----------------|------------------x--x--|


  E  Q    E  Q    Q       W                   Q.     E  E  E   
-----------------------|-------------------|------------------|
--3---------------3----|--L----------------|------------------|
--2-------2-------2----|--L----------------|--L---------------|
--0-------2--x----0----|--L----------------|--L---------------|
----------0--x---------|--L----------------|--L---------------|
-----------------------|-------------------|---------3--2--1--|


                   PM                                  PM PM             PM     
  Q    E  E  E  E  E  E     E  E  E  E  E  E  E  E     E  E  E  E  E  E  E  E   
-------------------------|--------------------------|--------------------------|
-------------------------|--------------------------|--------------------------|
-------------------------|--------------------------|--------------------------|
-------7--x--6--------7--|--x--6-----7-----4--4--4--|--------7--x--6--------7--|
-------5--x--4--x-----5--|--x--4--x--5-----2--2--2--|--------5--x--4--x-----5--|
--0----------------0-----|--------------------------|--0--0--------------0-----|


                                              PM                                
  E  E  E  E  E  E  E  E     Q    E  E  E  E  E  E     E  E  E  E  E  E  E  E   
--------------------------|-------------------------|--------------------------|
--------------------------|-------------------------|--------------------------|
--------------------------|-------------------------|--------------------------|
--x--6-----7--------------|-------7--x--6--------7--|--x--6-----7-----4--4--4--|
--x--4--x--5--------------|-------5--x--4--x-----5--|--x--4--x--5-----2--2--2--|
-----------------3--2--1--|--0----------------0-----|--------------------------|


  PM PM             PM                                
  E  E  E  E  E  E  E  E     E  E  E  E  E  E  E  E   
--------------------------|--------------------------|
--------------------------|--------------------------|
--------------------------|--------------------------|
--------7--x--6--------7--|--x--6-----7--------------|
--------5--x--4--x-----5--|--x--4--x--5--------------|
--0--0--------------0-----|-----------------3--2--1--|


  E  E  E  E  E  E  E  E     E  E  E  E  E  E  E  E   
--------------------------|--------------------------|
--4-----4-----4-----4-----|--4-----4-----4-----4--0--|
-----3-----3-----3-----3--|-----3-----3-----3--------|
--------------------------|--------------------------|
--------------------------|--------------------------|
--------------------------|--------------------------|


  S S S  S S  S S  S S  S S  S S  S S  S    S  S S  S S  S S  S  E    Q.      
-----------------------------------------|-----------------------------------|
--3-0-4p-0-4p-0-5p-0-5p-0-6p-0-6p-0-7p-0-|--7p-0-8p-0-8p-0-9p-0-10--/15------|
-----------------------------------------|-----------------------------------|
-----------------------------------------|-----------------------------------|
-----------------------------------------|-----------------------------------|
-----------------------------------------|-----------------------------------|


  E  E  E  E  E  E  E  E     E  E  E  E  E   E   E   E    
--------------------------|-----------9---------11---L\--|
--------------------------|--9-----8--------10-----------|
-----------------9-----8--|-----7--------9---------------|
--------9-----8-----7-----|------------------------------|
-----8-----7--------------|------------------------------|
--7-----------------------|------------------------------|


                                                       \1/           
  |---3--|   |---3--|   |---3--|   |---3--|                          
  E   E  E   E  E   E   E   E  E   E  E   E     E   E  H.            
---------------------------------------------|----------------------|
---------------------------------------------|----------------------|
---------------------------------------------|----------------------|
--2p--0--2p--0--2p--0h--2p--0--2p--0--2p--0--|--2p--0---------------|
---------------------------------------------|---------2------------|
---------------------------------------------|----------------------|


  E  E  E  E  E  E  E  E     E  E  E  E  E  E  E  E   
--------------------------|--------------------------|
-----5-----5-----5-----5--|-----4-----4-----4-----4--|
-----4-----4-----4-----4--|-----4-----4-----4-----4--|
--2-----2-----2-----2-----|--2-----2-----2-----2-----|
--------------------------|--------------------------|
--------------------------|--------------------------|


  E  E  E  E  E  E  E  E     E  E  E  E  E  E  E  E   
--------------------------|--------------------------|
-----3-----3-----3-----3--|-----2-----2-----2-----2--|
-----2-----2-----2-----2--|-----2-----2-----2-----2--|
--2-----2-----2-----2-----|--2-----2-----2-----2-----|
--------------------------|--------------------------|
--------------------------|--------------------------|


  E  E  E  E  E  E  E  E     E  E  E  E  E  E  E  E   
--------------------------|--------------------------|
--------------------------|--------------------------|
-----9-----9-----9-----9--|-----8-----8-----8-----8--|
-----9-----9-----9-----9--|-----9-----9-----9-----9--|
--7-----7-----7-----7-----|--7-----7-----7-----7-----|
--------------------------|--------------------------|


  E  E  E  E  E  E  E  E     E  E  E  E  E  E  E  E   
--------------------------|--------------------------|
--------------------------|--------------------------|
-----7-----7-----7-----7--|-----6-----6-----6-----6--|
-----7-----7-----7-----7--|-----7-----7-----7-----7--|
--7-----7-----7-----7-----|--7-----7-----7-----7-----|
--------------------------|--------------------------|


   E   E   E   E   E   E   E   E      E   E   E   E   E    E   Q      
----------------------------------|--------------14-----------17b----|
----------------------------------|--14------13------13s--15---------|
----------------------14------13--|------12--------------------------|
----------14------13------12------|----------------------------------|
------13------12------------------|----------------------------------|
--12------------------------------|----------------------------------|


                                                                   NH        
  Q    Q    E  E  E  E     Q    Q    E  E  E  E     Q    Q    E    E  E  E   
------------------------|------------------------|--------------------------|
---------------3--------|---------------3--------|-----------------------3--|
---------------2--------|---------------2--------|-----------------x-----2--|
---------------0--------|---------------0--------|-----------------x--x--0--|
--2----2-------------2--|--2----2-------------2--|--2----2-------<>7--x-----|
--0----0-------------0--|--0----0-------------0--|--0----0------------------|


  E  E  Q    Q    E  E     Q    Q    E  E  E  E     Q    Q    E  E  E  E   
------------------------|------------------------|------------------------|
--L---------------------|---------------3--------|---------------3--------|
--L-----2---------------|---------------2--------|---------------2--------|
--L-----2---------------|---------------0--------|---------------0--------|
--------0------------2--|--2----2-------------2--|--2----2-------------2--|
------------------x--0--|--0----0-------------0--|--0----0-------------0--|


  Q    Q    E  E  E  E     E  E  Q    Q    E  E     E  Q    E  Q    Q     
------------------------|------------------------|-----------------------|
---------------------3--|--L---------------------|--3---------------3----|
---------------------2--|--L-----2---------------|--2-------2-------2----|
---------------x-----0--|--L-----2---------------|--0-------2--x----0----|
--2----2-------x--------|--------0---------------|----------0--x---------|
--0----0----------------|------------------x--x--|-----------------------|


                                         PM               PM     
  W                   Q.     E  E  E     Q    E  E  E  E  E  E   
-------------------|------------------|-------------------------|
--L----------------|------------------|-------------------------|
--L----------------|------------------|-------------------------|
--L----------------|--L---------------|-------7--x--6--------7--|
-------------------|--L---------------|-------5--x--4--x-----5--|
-------------------|---------3--2--1--|--0----------------0-----|


                             PM PM             PM     
  E  E  E  E  E  E  E  E     E  E  E  E  E  E  E  E   
--------------------------|--------------------------|
--------------------------|--------------------------|
--------------------------|--------------------------|
--x--6-----7-----4--4--4--|--------7--x--6--------7--|
--x--4--x--5-----2--2--2--|--------5--x--4--x-----5--|
--------------------------|--0--0--------------0-----|


                             PM PM             PM     
  E  E  E  E  E  E  E  E     E  E  E  E  E  E  E  E   
--------------------------|--------------------------|
--------------------------|--------------------------|
--------------------------|--------------------------|
--x--6-----7--------------|--------7--x--6--------7--|
--x--4--x--5--------------|--------5--x--4--x-----5--|
-----------------3--2--1--|--0--0--------------0-----|


                             PM PM             PM     
  E  E  E  E  E  E  E  E     E  E  E  E  E  E  E  E   
--------------------------|--------------------------|
--------------------------|--------------------------|
--------------------------|--------------------------|
--x--6-----7-----4--4--4--|--------7--x--6--------7--|
--x--4--x--5-----2--2--2--|--------5--x--4--x-----5--|
--------------------------|--0--0--------------0-----|


                             PM PM             PM     
  E  E  E  E  E  E  E  E     E  E  E  E  E  E  E  E   
--------------------------|--------------------------|
--------------------------|--------------------------|
--------------------------|--------------------------|
--x--6-----7--------------|--------7--x--6--------7--|
--x--4--x--5--------------|--------5--x--4--x-----5--|
-----------------3--2--1--|--0--0--------------0-----|


                             PM PM             PM     
  E  E  E  E  E  E  E  E     E  E  E  E  E  E  E  E   
--------------------------|--------------------------|
--------------------------|--------------------------|
--------------------------|--------------------------|
--x--6-----7-----4--4--4--|--------7--x--6--------7--|
--x--4--x--5-----2--2--2--|--------5--x--4--x-----5--|
--------------------------|--0--0--------------0-----|


                             PM PM             PM     
  E  E  E  E  E  E  E  E     E  E  E  E  E  E  E  E   
--------------------------|--------------------------|
--------------------------|--------------------------|
--------------------------|--------------------------|
--x--6-----7--------------|--------7--x--6--------7--|
--x--4--x--5--------------|--------5--x--4--x-----5--|
-----------------3--2--1--|--0--0--------------0-----|


                             PM PM             PM                             
  E  E  E  E  E  E  E  E     E  E  E  E  E  E  E  E     H        E  E  E  E   
--------------------------|--------------------------|-----------------------|
--------------------------|--------------------------|-----------------------|
--------------------------|--------------------------|-----------------------|
--x--6-----7-----4--4--4--|--------7--x--6--------7--|-----------------------|
--x--4--x--5-----2--2--2--|--------5--x--4--x-----5--|-----------------------|
--------------------------|--0--0--------------0-----|--------------3--2--1--|


  PM PM             PM                                
  E  E  E  E  E  E  E  E     E  E  E  E  E  E  E  E   
--------------------------|--------------------------|
--------------------------|--------------------------|
--------------------------|--------------------------|
--------7--x--6--------7--|--x--6-----7-----4--4--4--|
--------5--x--4--x-----5--|--x--4--x--5-----2--2--2--|
--0--0--------------0-----|--------------------------|


  PM PM             PM                               PM PM             PM     
  E  E  E  E  E  E  E  E     H        E  E  E  E     E  E  E  E  E  E  E  E   
--------------------------|-----------------------|--------------------------|
--------------------------|-----------------------|--------------------------|
--------------------------|-----------------------|--------------------------|
--------7--x--6--------7--|-----------------------|--------7--x--6--------7--|
--------5--x--4--x-----5--|-----------------------|--------5--x--4--x-----5--|
--0--0--------------0-----|--------------3--2--1--|--0--0--------------0-----|


                             PM PM             PM                             
  E  E  E  E  E  E  E  E     E  E  E  E  E  E  E  E     H        E  E  E  E   
--------------------------|--------------------------|-----------------------|
--------------------------|--------------------------|-----------------------|
--------------------------|--------------------------|-----------------------|
--x--6-----7-----4--4--4--|--------7--x--6--------7--|-----------------------|
--x--4--x--5-----2--2--2--|--------5--x--4--x-----5--|-----------------------|
--------------------------|--0--0--------------0-----|--------------3--2--1--|


  E  H        E  E  E     E  E  H.             
-----------------------|---------------------||
-----------------------|---------------------||
-----------------------|---------------------||
-----------------------|---------------------||
-----------------------|---------------------||
--0-----------3--2--1--|--0------------------||




Duration Legend
---------------
W - whole
H - half
Q - quarter
E - 8th
S - 16th
T - 32nd
X - 64th
. - note dotted
|-n-|  - n-tuplets


Tablature Legend
----------------
L - tied note
x - dead note
g - grace note
(n) - ghost note
> - accentuded note
NH - natural harmonic
AH - artificial harmonic
TH - tapped harmonic
SH - semi harmonic
PH - pitch harmonic
h - hammer on
p - pull off
b - bend
br - bendRelease
pb - preBend
pbr - preBendRelease
brb - bendReleaseBend
\n/ - tremolo bar dip
\n - tremolo bar dive
-/n - tremolo bar Release up
/n\ - tremolo bar inverted dip
/n - tremolo bar return
-\n - tremolo bar Release down
S - shift slide
s - legato slide
/ -  slide into from below or out of upwards
\ -  slide into from above or out of downwards
~ - vibrato
W - wide vibrato
tr - trill
TP - tremolo picking
T - tapping
S - slap
P - pop
< - fade in
^ - brush up
v - brush down
comments
We did not receive enough feedback on this tab! Please rate:
print report bad tab
1 2 3 4 5
I want to post or [tab]
guest
You may want to rate the tab now too:
select rating
Please do not post tabs as comments. Select "correction" instead!